Guitar Tabs, Chords and Lyrics
Server problems seems to be fixed. Chordie has been experiencing problems with songs disappearing. These issues now seems to be fixed, but still verifying the fix. If you find anything strange, please email admin@chordie.com.


Love Boat Captain  Pearl Jam

Standard
Intro : Palm Muted
 
 e---------------------------------------------------
 B---------------------------------------------------
 G---------------------------------------------------
 D-10--10--10--10--10-10-10-10-555555555-333333333333
 A-10--10--10--10--10-10-10-10-555555555-333333333333
 E-8---8---8---8---8--8---8--8-333333333-111111111111

Is this just another day...... this God forgotten Place
first comes love and then comes pain. let the games begin.....
questions rise and answers fall..... insurmountable.
Next part: ( riff 2 )
[B]love boat captain
[D]take the reigns and steer us towards the c[B]lear...... here
[D]Its already been sung but it cant be said enough
all you need is [F]love
Riff after he sings love :
 
 e--------------------
 B--------------------
 G--2----------2------
 D---3----3---3-------
 A----3--3---3--------
 E-----1----1---------

Play the intro again:
Is this just another phase? earthquakes making waves......
Trying to shake the cancer off? stupid human beings......
once you hold the hand of love..... its all surmountable.
Interlude:
[A]hold me, and [C]make [G]it the [A]truth[C] [G]
[A]that when all is [C]lost [G]there will be [A]you....[C] [G]
cause to the [A]universe i don't[C] mean a[G] thing
and there's[A] just one word i[C] still bel[G]ieve and it[F] love
Riff when he sings love right there:
 
 e------------------------ e---------
 B------------------------ B---------
 G------------------------ repeat that as G-33333333
 D---3-2---2------3-2--2-- nessacary and then D-33333333
 A--3----3---3--3-----3--2 play this A-11111111
 E-1-----------1---------- E---------

Stone plays that again and the second time Mike plays this:
 
 e------------------------------
 B--13----13--13/15--13---15--13
 G------------------------------
 D------------------------------
 A------------------------------
 E------------------------------

Play the intro riff through this next verse:
Its an art to live with pain..... mix the light into gray......
lost 9 friends we‚??ll never know..... 2 years ago today.
and if our lives became too long, would it lead to our regret?
Play riff 2 when he sings this:
and the young, they can lose hope cause they cant see beyond today....
the wisdom that the old cant give away hey.....
constant recoil.....sometimes life don't leave you alone
Then play the interlude again
I have no idea how to play the solo
Then play the intro at the end.
Thanx.
Here are the chords
[A] [G] [C] [D] [C] [F]  
 
 e------------------------------------------
 B------------------------------------------
 G----------------------7--------5----------
 D--7------5-----10-----7--------5---------3
 A--7------5-----10-----5--------3---------3
 E--5------3-----8-------------------------1


Important: The song above is NOT stored on the Chordie server. The original song is hosted at www.azchords.com. Chordie works as a search engine and provides on-the-fly formatting. Chordie does not index songs against artists'/composers' will. To remove this song please click here.

Text color:
Chord color:
Chord grids: 
Font size:    
Page size: 

A B C D F G
Rate #1 of 8 versions

Login - add to songbook

SHARE PAGE  




You need to log in to post comments