Guitar Tabs, Chords and Lyrics
Server problems seems to be fixed. Chordie has been experiencing problems with songs disappearing. These issues now seems to be fixed, but still verifying the fix. If you find anything strange, please email admin@chordie.com.


Mankind  Pearl Jam

chord voicings
B5 = X244XX
E5 = 022XXX OR X799XX
C#5 = X466XX
G#5 = 466XXX
A5 = 577XXX
C5 = X355XX
F#5 = 244XXX
intro -
[B5] [B5] [B5] [B5] [E5] [E5] [E5] [E5] [C#5] [C#5] [C#5] [C#5] [G#5] [G#5] [G#5] [G#5] 
[B5] [B5] [B5] [B5] [E5] [E5] [E5] [E5] [C#5] [C#5] [A5] [A5] [A5] [A5] 
(ok main riff here)
[C5] [C5] [C5] [C5] [C5] [F#5]  
[C5] [C5] [C5] [C5] [C5] [F#5]  
[C5]You[C5]'ll[C5] be[C5],[C5] [F#5]
[C5]goi[C5]ng [C5]out[C5] wi[C5]th [F#5]radio
[C5]goi[C5]ng [C5]out[C5] wi[C5]th [F#5]disco
[C5]goi[C5]ng [C5]out[C5] wi[C5]th [F#5]bacchan*l
[C5]I'l[C5]l b[C5]e,[C5] [C5] [F#5]
[C5]goi[C5]ng [C5]out[C5] wi[C5]th [F#5]telephone
[C5]goi[C5]ng [C5]out[C5] al[C5]one[F#5]
[C5]to [C5]the[C5] ra[C5]dar[C5] zo[F#5]ne
[B5]it'[B5]s a[B5]ll [B5]just [E5]ina[E5]dve[E5]rte[E5]nt [C#5]imit[C#5]atio[C#5]n [C#5] [G#5]I do[G#5]n't [G#5]mean[G#5] mine
[B5]it'[B5]s a[B5]ll [B5]acr[E5]oss[E5] th[E5]is [E5]nation[C#5] [C#5] [G#5] [G#5] [G#5] [G#5]
[B5]if [B5]it'[B5]s j[B5]ust [E5]ina[E5]dve[E5]rte[E5]nt [C#5]simu[C#5]lati[C#5]on [C#5] [G#5]A pa[G#5]tter[G#5]n in[G#5] all mankind
[B5]wha[B5]t's[B5] go[B5]t t[E5]he [E5]who[E5]le [E5]wor[C#5]ld f[C#5]akin[C#5]'?[C#5] [A5] [A5] [A5] [A5]
[C5]I'l[C5]l b[C5]e, [C5] [C5] [F#5]
[C5]pla[C5]yin[C5]' w[C5]ith[C5] my[F#5] magazine
[C5]usi[C5]n' [C5]up [C5]my [C5]lys[F#5]terine
[C5]lik[C5]e o[C5]val[C5]tin[C5]e[F#5]
[C5]and[C5] yo[C5]u'l[C5]l b[C5]e[F#5]
[C5]dip[C5]pin[C5] in[C5] yo[C5]ur [F#5]battleship
[C5]for[C5] th[C5]e l[C5]ate[C5]st [F#5]tip
[C5]for[C5] th[C5]e l[C5]ate[C5]st [F#5]dream
[B5]it'[B5]s a[B5]ll [B5]just [E5]ina[E5]dve[E5]rte[E5]nt [C#5]imit[C#5]atio[C#5]n [C#5] [G#5]I do[G#5]n't [G#5]mean[G#5] mine
[B5]it'[B5]s a[B5]ll [B5]acr[E5]oss[E5] th[E5]is [E5]nation[C#5] [C#5] [G#5] [G#5] [G#5] [G#5]
[B5]if [B5]it'[B5]s j[B5]ust [E5]ina[E5]dve[E5]rte[E5]nt [C#5]simu[C#5]lati[C#5]on [C#5] [G#5]A pa[G#5]tter[G#5]n in[G#5] all mankind
[B5]wha[B5]t's[B5] go[B5]t t[E5]he [E5]who[E5]le [E5]wor[C#5]ld f[C#5]akin[C#5]'?[C#5] [A5] [A5] [A5] [A5]
-SOLO OVER THIS BASSLINE- this basline is repeated 3 times
-solo is Em pent... i think-
 
 G----------------------------------------------------
 D----------------------------------------------------
 A----------------------------------------------------
 E-0-0-0-0-0-9-0-0-0-0-10-0-0-0-0-11-0-0-0-0-12-0-0-0-

^
third time through dont hit the 12 just leave it open
mike just rides an E while stone solos
-muted strings here-
[B5]if [B5]it'[B5]s j[B5]ust [E5]ina[E5]dve[E5]rte[E5]nt [C#5]imit[C#5]atio[C#5]n [C#5] [G#5]a pa[G#5]tter[G#5]n in[G#5] all mankind
[B5]wha[B5]t's[B5] go[B5]t th[E5]e w[E5]hol[E5]e w[E5]orld fakin'?[C#5] [C#5] [G#5] [G#5]
[B5]wha[B5]t's[B5] go[B5]t th[E5]e w[E5]hol[E5]e w[E5]orld fakin'?[C#5] [C#5] [G#5] [G#5]
[B5]wha[B5]t's[B5] go[B5]t th[E5]e w[E5]hol[E5]e w[E5]orld fakin'?[C#5] [C#5] [G#5] [G#5]
[B5]wha[B5]t's[B5] go[B5]t th[E5]e w[E5]hol[E5]e w[E5]orld fakin'?[C#5] [C#5] [G#5] [G#5]
[B5]wha[B5]t's[B5] go[B5]t th[E5]e w[E5]hol[E5]e w[E5]orld fakin'?[C#5] [C#5] [G#5] [G#5] [G#5] [G#5]
[B5]wha[B5]t's[B5] go[B5]t th[E5]e w[E5]hol[E5]e w[E5]orld fakin'?[C#5] [C#5] [G#5] [G#5] [G#5] [G#5]
[B5] [B5] [B5] [B5] [E5] [E5] [E5] [E5] [C#5] [C#5] [C#5] [C#5] [A5] [A5] [A5] [A5] [B5/] 
This is played in standard tuning w/medium distortion
Intro/Chorus:
 
 E------------------------------------------------
 A------------------------------------------------
 D-4-4-4-4-4-4-4-4-9-9-9-9-9-9-9-9-6-6-6-6-6-6-6-6
 G-4-4-4-4-4-4-4-4-9-9-9-9-9-9-9-9-6-6-6-6-6-6-6-6
 B-2-2-2-2-2-2-2-2-7-7-7-7-7-7-7-7-4-4-4-4-4-4-4-4
 E------------------------------------------------
 E------------------------------------------------
 A------------------------------------------------
 D------------------------------------------------
 G-6-6-6-6-6-6-6-6--------------------------------
 B-6-6-6-6-6-6-6-6--------------------------------
 E-4-4-4-4-4-4-4-4--------------------------------

Then the 'going out with radio' part
 
 E--------------------------------------
 A--------------------------------------
 D-5-5-5-5-5-5-5-5-5/4-4----------------
 G-5-5-5-5-5-5-5-5-5/4-4-4-4-4-4-4-4-4-4
 B-3-3-3-3-3-3-3-3-3/2-2-4-4-4-4-4-4-4-4
 E-----------------------2-2-2-2-2-2-2-2

MANKIND
Pearl Jam - No Code
This represents our interpretation of the original artist's work, to be used for personal or educational use only.
Transcibed by Matt Forth.
If you add to this or fix any mistakes, please send us a copy.
(Please email if you are a drummer / bass guitarist near Brisbane interested in jammin'!!!!)
INTRO / CHORUS:
 
 E|----------------|----------------|----------------|
 B|----------------|----------------|----------------|
 G|--------9-------|6---------------|--------9-------|
 D|9-------9-------|6-------6-------|9-------9-------|
 A|9-------7-------|4-------6-------|9-------7-------|
 E|7---------------|--------4-------|7---------------|

. . . . . . . . . . . .
 
 E|----------------|
 B|----------------|
 G|6---------------|
 D|6---6-----------|
 A|4---6-----------|
 E|----4-----------|

. . . .
VERSE:
 
 E|----------------|----------------|
 B|----------------|----------------|
 G|5---------------|----------------|
 D|5---------------|----5-----------|
 A|3---------------|----5-----------|
 E|----------------|----3-----------|

. . . . . . . .
INTRO
VERSE 1
You'll be going out with radio
going out with disco
going out with bacchan*l
I'll be going out with telephone
going out alone
to the radar zone
CHORUS
I'ts all just inadvertant imitation and I don't mean mine
It's all across this nation
It's all just inadvertant simulation a patterin in all mankind
What's got the whole world faking it.
VERSE 2
I'll be playing with my magazine
using up my listerine
like ovaltine
You'll be dripping in your battleship
for the latest trip
for the latest dream
CHORUS

Important: The song above is NOT stored on the Chordie server. The original song is hosted at www.azchords.com. Chordie works as a search engine and provides on-the-fly formatting. Chordie does not index songs against artists'/composers' will. To remove this song please click here.

Text color:
Chord color:
Chord grids: 
Font size:    
Page size: 

A5 B5 C#5 C5 E5 F#5 G#5
Rate #1 of 6 versions

Jango Player

Login - add to songbook

SHARE PAGE  



You need to log in to post comments