Guitar Tabs, Chords and Lyrics
Server problems seems to be fixed. Chordie has been experiencing problems with songs disappearing. These issues now seems to be fixed, but still verifying the fix. If you find anything strange, please email admin@chordie.com.


Affliction  Pennywise

Intro:
 
 e|--1--1--------------1--1-------------|--1--1--------------0--1--0--1---|
 B|--3--3--------------3--3-------------|--3--3--------------2--3--2--3---|
 G|--2--2--------------2--2-------------|--2--2--------------2--3--2--3---| 2x
 D|--0--0-0-2-3-2-0----0--0-0-2-3-2-0---|--0--0-0-2-3-2-0----2--3--2--3---|
 A|-----------------3-------------------|-----------------3--0--1--0--1---|
 E|-------------------------------------|-----------------------1-----1---|

Verse:
[Dm]Take a listen to [Am]what I say
[F]I got the truth and I'll [C]help you find your [F]way[C]
[Dm]It's time to take what [Am]you know is [F]already y[C]our[F]s[Am]
[Dm]It's your life,[Am] it's your right
[F]You wake up every moment feeling [C]numb until you[F] d[C]ie
[Dm]Take a chance an[Am]d walk right through [F]that unopened [C]door
[Am]Take a chance and [A#]walk right [C]through
Chorus:
The [Dm]afflic[F]tion that's the [A#]curse for the [C]modern man
[Dm]If you be[F]lieve then you [A#]can't be [C]wrong
[Dm]Reject [F]all the o[A#]pposing o[C]pinions
[Dm]And [Am]carry [C]on
The [Dm]afflic[F]tion that's the [A#]curse for the [C]modern man
[Dm]With blind [F]faith you're [A#]never w[C]rong
[Dm]Reject [F]all the o[A#]pposing o[C]pinions
Dm Am C A, A#, A, A#, A, A#, A
You can't go wrong
Intro:
 
 e|--1--1--------------1--1-------------|--1--1--------------0--1--0--1---|
 B|--3--3--------------3--3-------------|--3--3--------------2--3--2--3---|
 G|--2--2--------------2--2-------------|--2--2--------------2--3--2--3---|
 D|--0--0-0-2-3-2-0----0--0-0-2-3-2-0---|--0--0-0-2-3-2-0----2--3--2--3---| 1x
 A|-----------------3-------------------|-----------------3--0--1--0--1---|
 E|-------------------------------------|-----------------------1-----1---|

Verse:
[Dm]So make your pledges an[Am]d place the blame
[F]They got opinions and you [C]hear them ev[F]er[C]yday
[Dm]We got the facts to [Am]back them up you [F]just can't [C]ig[F]no[Am]re
[Dm]You gotta fight[Am] for what's right
[F]No matter if the truth just ca[C]n't be seen in black and [F]wh[C]ite
[Dm]But don't think that's g[Am]onna stop 'em [F]marching to [C]war
[Am]Go ahead and [A#]march right [C]throught
Chorus:
The [Dm]afflic[F]tion that's the [A#]curse for the [C]modern man
[Dm]If you be[F]lieve then you [A#]can't be [C]wrong
[Dm]Reject [F]all the o[A#]pposing o[C]pinions
[Dm]And [Am]carry [C]on
The [Dm]afflic[F]tion that's the [A#]curse for the [C]modern man
[Dm]With blind [F]faith you're [A#]never w[C]rong
[Dm]Reject [F]all the o[A#]pposing o[C]pinions
Dm Am C A, A#, A, A#, A, A#, A....Am.....
You can't go wrong
Solo:
 
 e|-------------------------------|-------------------------------|
 B|--3-3-3-1-3-3-3-1-3------------|-------------------------------|
 G|---------------------3--2--3---|----------2--------------------|
 D|-------------------------------|--3-3-3-3---3-3--0-0-----------|
 A|-------------------------------|----------------------3--1--0--|
 E|-------------------------------|-------------------------------|
 e|-------------------------------|-------------------------|
 B|-3-3-3-1-3-3-3-1-3-------------|----1----1----1-3-1------|
 G|-------------------3--2--3-----|--2----2----2-------3-2--|
 D|-------------------------------|-------------------------|
 A|-------------------------------|-------------------------|
 E|-------------------------------|-------------------------|
 e|----5---5---5----5-3--1-----5---5---5----5-3------|
 B|--6---6---6----6----------6---6---6----6-----3----|
 G|--------------------------------------------------|
 D|--------------------------------------------------|
 A|--------------------------------------------------|
 E|--------------------------------------------------|
 e|---------------------------------|-0--x-x-0-x-x-0-x-0-x-1-0--0-0--|
 B|--3-3-3--------------------------|-1--x-x-1-x-x-1-x-1-x-3-3--1-1--|
 G|--------3--3-3--2--2-2---0--0-0--|-2--x-x-2-x-x-2-x-2-x-3-3--0-0--|
 D|---------------------------------|-2--x-x-2-x-x-2-x-2-x-3-3--2-2--|
 A|---------------------------------|-0--x-x-0-x-x-0-x-0-x-1-1--3-3--|
 E|---------------------------------|----------------------1-1-------|

Chorus:
The [Dm]afflic[F]tion that's the [A#]curse for the [C]modern man
[Dm]If you be[F]lieve then you [A#]can't be [C]wrong
[Dm]Reject [F]all the o[A#]pposing o[C]pinions
[Dm]And [Am]carry [C]on
The [Dm]afflic[F]tion that's the [A#]curse for the [C]modern man
[Dm]With blind [F]faith you're [A#]never w[C]rong
[Dm]Reject [F]all the o[A#]pposing o[C]pinions
Dm Am C A, A#, A, A#, A, A#, A
You can't go wrong
Outro:
 
 e|--1--1--------------1--1-------------|--1--1--------------0--1--0--1---|
 B|--3--3--------------3--3-------------|--3--3--------------2--3--2--3---|
 G|--2--2--------------2--2-------------|--2--2--------------2--3--2--3---|
 D|--0--0-0-2-3-2-0----0--0-0-2-3-2-0---|--0--0-0-2-3-2-0----2--3--2--3---|
 A|-----------------3-------------------|-----------------3--0--1--0--1---|
 E|-------------------------------------|-----------------------1-----1---|
 e|--1--1--------------1--1-------------|--1--1--------------0--1--0--1--0-0-0-0--1-1-1-1--1--|
 B|--3--3--------------3--3-------------|--3--3--------------2--3--2--3--2-2-2-2--3-3-3-3--3--|
 G|--2--2--------------2--2-------------|--2--2--------------2--3--2--3--2-2-2-2--3-3-3-3--2--|
 D|--0--0-0-2-3-2-0----0--0-0-2-3-2-0---|--0--0-0-2-3-2-0----2--3--2--3--2-2-2-2--3-3-3-3--0--|
 A|-----------------3-------------------|-----------------3--0--1--0--1--0-0-0-0--1-1-1-1-----|
 E|-------------------------------------|-----------------------1-----1-----------1-1-1-1-----| 


Important: The song above is NOT stored on the Chordie server. The original song is hosted at www.azchords.com. Chordie works as a search engine and provides on-the-fly formatting. Chordie does not index songs against artists'/composers' will. To remove this song please click here.

Text color:
Chord color:
Chord grids: 
Font size:    
Page size: 

A# Am C Dm F
Rate #1 of 1 versions

Jango Player

Login - add to songbook

SHARE PAGE  



You need to log in to post comments