Guitar Tabs, Chords and Lyrics
Server problems seems to be fixed. Chordie has been experiencing problems with songs disappearing. These issues now seems to be fixed, but still verifying the fix. If you find anything strange, please email admin@chordie.com.


Big Mistake  Pepper

[Cborus] 
Let's make a big mistake
A[C]nd believe what I'm saying
Cause these fee[F]lings here won't shake
And your mind will be pla[C]ying tricks on you
Don't b[Am]elieve, don't believe all the rules
[Verse] 
I got a feeling that you were right
[C]You're holding up your life, I know your
[C]Time is chasing, the clock is racing
[C]It's all coming after you and I say
[C]  
[Cborus] 
Let's make a big mistake
A[C]nd believe wh[F]at I'm saying
Ca[C]use these feelings[Am] here won't shake
And you[C]r mind will be play[F]ing tricks on you
Don't b[C]elieve, don't believ[Am]e all the rules
[Instrumental] 
[C] [F] [C] [Am]  
[Verse] 
Now is it worth its weight in gold
[C]Or should we melt it down to be sold?
[C]You're always giving up
[C]No one ever needs to know your
[C]Hoping that I'm wrong this time for sure
[Cborus] 
Let's make a big mistake
A[C]nd believe wh[F]at I'm saying
Ca[C]use these feelings[Am] here won't shake
And you[C]r mind will be play[F]ing tricks on you
Don't b[C]elieve, don't believ[Am]e all the rules yeah
[Instrumental] 
[C] [F] [C] [Am] [C] [F] [C] [Am]  
[Solo] 
 
 e|-----------------------------------------------|
 B|-----------------------------------------------|
 G|------------12---------------------------------|
 D|--10--12/14----14~-14-12-10--------------------|
 A|----------------------------12~-10-8~----------|
 E|-----------------------------------------------|
 e|------------------------------------------8~-----------------------|
 B|--------------13-13/10-13/8-13/10--8h10p8----------------8---------|
 G|--------------12-12/9--12/7-12/9----------------7----7-9---9-7~----|
 D|--10-12/14~----------------------------------10---10-----------10--|
 A|-------------------------------------------------------------------|
 E|-------------------------------------------------------------------|

[Cborus] 
Let's make a big mistake
A[C]nd believe wh[F]at I'm saying
Ca[C]use these feelings[Am] here won't shake
And you[C]r mind will be play[F]ing tricks on you
Don't b[C]elieve, don't believ[Am]e all the rules yeah
Let[C]'s make a bi[F]g mistake
Le[C]t's make a b[Am]ig mistake
L[C]et's make a big mis[F]take
[C]Let's make a big mis[Am]take
[C] [F] [C] [Am] 

Important: The song above is NOT stored on the Chordie server. The original song is hosted at www.azchords.com. Chordie works as a search engine and provides on-the-fly formatting. Chordie does not index songs against artists'/composers' will. To remove this song please click here.

Text color:
Chord color:
Chord grids: 
Font size:    
Page size: 

Am C F
Rate #1 of 1 versions

Jango Player

Login - add to songbook

SHARE PAGE  



You need to log in to post comments