Guitar Tabs, Chords and Lyrics
Server problems seems to be fixed. Chordie has been experiencing problems with songs disappearing. These issues now seems to be fixed, but still verifying the fix. If you find anything strange, please email admin@chordie.com.


The Invite  Pepper

[Intro] Picked throughout the verse
 
 e|-------------------------------------------------------|
 B|-------------------------------------------------------|
 G|-------9----------9-------------9----------9-----------|
 D|---------10---------10------------10---------10--------|
 A|----10------10-10------10----10------10-10------10-----|
 E|--8------------------------8---------------------------|
 e|-------------------------------------------------------|
 B|-------------------------------------------------------|
 G|------10------10-10-----------10------10-10------------|
 D|---------10---------10-----------10---------10---------|
 A|--8-8-------8----------8--8-8-------8----------8-------|
 E|-------------------------------------------------------|

[Verse] 
[C]Driving back from the bar
[C]Check engine light in my car
[F]This might not be the right plan
[F]Thinking of driving again
[C]Squandered too much time
[C]Locked up inside of my mind
[F]Talked myself out of my dreams
[F]Afraid to fail routine
[Pre-Cborus] 
T[C]ake action, make it[C] happen
[F]What are you w[G]aiting for
[C]Too much talking, too[C] much knocking
[F]Just kick down [G]the door
[C]Make a move, se[C]e the light
[F]Make a move, i[G]t'll be alright
[Cborus] 
[C]Whoa yeah, welcome t[C]o your life
[F]Where you can li[G]ve, if you want to live
[C]Whoa yeah, welcome t[C]o your life
[F]Cause right no[G]w, your life is
[C]More than just[C] being alive
[Verse] 
I just need to begin
Stuck in my indecision
Some people lost at sea
[F]They look a lot like me
[C]No risk no reward I'm told
[C]Jump now before I get old
[F]This is my new train of thought
[F]Just sh*t or get off the pot
[Pre-Cborus] 
T[C]hink action, make i[C]t happen
[F]What are you w[G]aiting for
[C]Too much talking, too[C] much knocking
[F]Just kick down [G]the door
[C]Make a move, se[C]e the light
[F]Make a move, i[G]t'll be alright
[Cborus] 
[C]Whoa yeah, welcome t[C]o your life
[F]Where you can li[G]ve, if you want to live
[C]Whoa yeah, welcome t[C]o your life
[F]Cause right no[G]w, your life is
[C]More than just[C] being alive
[C]More than just b[C]eing alive
[Instrumental] 
 
 e|----8-----------------8---------------------|
 B|------8---10------------8---10--------------|
 G|--------9----10-----------9----10-----------|
 D|----------------10----------------10--------|
 A|--------------------------------------------|
 E|--8-----------------8-----------------------|

[Cborus] 
[C]Whoa yeah, welco[C]me to your life
[F]Where you can live[G], if you want to live
[C]Whoa yeah, welco[C]me to your life
[F]Cause this life, thi[G]s life is
[C]Whoa yeah, welco[C]me to your life
[F]Where you can live[G], if you want to live
[C]Whoa yeah, welcome[C] to your life
[F]Cause this life, cause th[G]is life, this life is
[C]More than just being alive

Important: The song above is NOT stored on the Chordie server. The original song is hosted at www.azchords.com. Chordie works as a search engine and provides on-the-fly formatting. Chordie does not index songs against artists'/composers' will. To remove this song please click here.

Text color:
Chord color:
Chord grids: 
Font size:    
Page size: 

C F G
Rate #1 of 1 versions

Jango Player

Login - add to songbook

SHARE PAGE  




You need to log in to post comments