Guitar Tabs, Chords and Lyrics
Server problems seems to be fixed. Chordie has been experiencing problems with songs disappearing. These issues now seems to be fixed, but still verifying the fix. If you find anything strange, please email admin@chordie.com.


These Hands  Pepper

Key: Dm
[Intro] 
[G] [Dm] [Am] [Em]  
 
 e||----------------------|---------------------|---------------------|----------------------||
 B||----------------------|---------------------|---------------------|----------------------||
 G||*---------------------|---------------------|---------------------|---------------------*||
 D||*---------------------|---3---3---3---3---3-|---------------------|---5---5---5h7-5---5-*||
 A||----2---2---2---2---2-|-5---5---5---5---5---|---3---3---3---3---3-|-7---7---7-------7----|| x2
 E||--3---3---3---3---3---|---------------------|-5---5---5---5---5---|----------------------||

[Verse] 
I [G]hear your favorite so[Dm]ng,
As it blows through the sp[Am]eakers,
Of this old [Em]car,
I re[G]member driving up to the top of the Beverl[Dm]y Hills,
We fogged up the [Am]windows,
Kissed by the s[Em]treetlight
[Cborus] 
O[G]h, Look at these [Dm]hands,
See what they've [Am]done,
It's hard to remember [D7sus2]this,
Cause we were having so much [G]fun,
Oh, I was your [Dm]man,
but that's over and [Am]done,
Well I miss your shiny [D7sus2]lips,
(intro riff) G Dm Am Em
And the way you chased the sun,
(Oh, chased the sun)
[Verse] 
I [G]watched you put your makeup [Dm]on,
Then rode through a [Am]red light
No hands on the w[Em]heel,
You [G]always wanna hotbox us on the fr[Dm]eeway
And you'd tell me to [Am]drive home,
With the headlights [Em]off
[Cborus] 
Yeah,[G] Look at these [Dm]hands,
See what they've [Am]done,
It's hard to remember [D7sus2]this,
Cause we were having so much [G]fun,
Oh, I was your [Dm]man,
but that's over and [Am]done,
Well I miss your shiny [D7sus2]lips,
And the way you chased the [Cmaj7]sun[Em9/D] [Bm7] [Em7]
[Bridge] 
(Look in notes for finger positions)
Was it the [Cmaj7]way that you [Em9/D]smile,[Bm7] [Em7]
Or was it the [Cmaj7]way that you [Em9/D]laughed at [Bm7]life,[Em7]
So [Cmaj7]flick a nickel anytime,
I[Em9/D] would always make you mine,
E[Bm7]ven through the head[Em7]lights,
Oh, [Cmaj7]flick a nickel anytime,
I[Em9/D] would always make you mine,
E[Bm7]ven through the red [Em7]lights,
G* (Hold)
Now baby
[Cborus] 
Look at these [Dm]hands,
See what they've [Am]done,
It's hard to remember [D7sus2]this,
Cause we were having so much [G]fun,
Oh, I was your [Dm]man,
but that's over and [Am]done,
Well I miss your shiny [D7sus2]lips,
And the way you chased the [G]sun
Look at these h[Dm]ands,
See what they've [Am]done,
It's hard to remember [D7sus2]this,
Cause we were having so much [G]fun,
Oh, I was your [Dm]man,
but that's over and [Am]done,
Well I miss your shiny [D7sus2]lips,
[Outro] 
(Intro Riff) G Dm Am Em (Repeat 2x)
And the way you chased the sun...
[Ending] 
G (Hold)
Notes:
D7sus2 G*
 
 e||---8---|---10---|
 B||---5---|---12---|
 G||---7---|---12---|
 D||---7---|---12---|
 A||---5---|---10---|
 E||---x---|---x----|

[Bridge] 
(Em9/D was the best I could come up with for chord label)
[Cmaj7] [Em9/D] [Bm7] [Em7]  
 
 e||----0----|----0----|----2----|----7----|
 B||----0----|----0----|----3----|----8----|
 G||----0----|----0----|----2----|----7----|
 D||----2----|----4----|----4----|----9----|
 A||----3----|----5----|----2----|----7----|
 E||----x----|----x----|----x----|----x----| 


Important: The song above is NOT stored on the Chordie server. The original song is hosted at www.azchords.com. Chordie works as a search engine and provides on-the-fly formatting. Chordie does not index songs against artists'/composers' will. To remove this song please click here.

Text color:
Chord color:
Chord grids: 
Font size:    
Page size: 

Am Bm7 Cmaj7 D7sus2 Dm Em Em7 Em9/D G
Rate #1 of 1 versions

Jango Player

Login - add to songbook

SHARE PAGE  



You need to log in to post comments