Guitar Tabs, Chords and Lyrics
Update 25:10. 13:00. Site is back up running again. Songbooks are recovered. Woring on getting search back up..


I Am the Rain  Peter Doherty

Pete Doherty
I am the rain
Chords:
Dm* x00231 (intro and the end)
Dm x57665 (verse and chorus)
Cadd9 x35333
C7 x35353
[G7] [353433]  
[A]A? [577655]x02023 (for the end)
Bb x13331
[F]C [133211]x32010
The intro is normaly played with two guitars, so I did a tab which mix the two guitars.
Be carefull all the song is in three-four time except the passage which is fast at the
of the song which is in four-four time.
Intro
Dm* Cadd9 Dm* Cadd9 Dm* Cadd9 G7
 
 -----1--------------------1-------------------1--------------------------|
 -----3---3-------3-5------3---3-------3-5-----3---3-------3-5---------3--|
 -------2-------3------------2-------3-----------2-------3---------4--4---|
 --0------------5-------0------------5------0------------5---------3------|
 ------------3--------------------3-------------------3------------5------|
 ---------------------------------------------------------------3--3------|

[A]  
 
 ------5--5--|
 ------5--5--|
 ------6--6--|
 ------7--7--|
 ------7--7--|
 ---5--5--5--|

Verse:
I [Dm]am the rai[Cadd9]n h[Dm]eld in dis[Cadd9]dain, oc[Dm]eans and pot[Cadd9]ions just [G7]add to my f[A]ame
It's r[Dm]hymed that in Spai[Cadd9]n, I [Dm]fall on the plai[Cadd9]n
The t[Dm]ruth is I??m [Cadd9]ruthless [G7]I can??t be [A]contained
I??m the rain
 
 -------5---5---3-------------x---5---5---3---3---3---x---5---5---x---3---3--|
 -------6---6---5-------------x---6---6---5---5---5---x---6---6---x---3---3--|
 -------7---7---3-------------x---7---7---3---3---3---x---7---7---x---3---3--|
 ---7---7---7---5-----------------7---7---x---5---5-------7---7-------5---5--|
 ---5---5---5---3-----------------5---5---x---x---5-------5---5-------3---3--|
 ---x---x---x---x-----------------x---x---x---x---x-------x---x-------x---x--|
 -3---3---3---5---5---5---|
 -3---3---3---5---5---5---|
 -3---4---4---6---6---6---|
 -5---3---3---7---7---7---|
 -3---5---5---7-- 7---7---|
 -x---3---3---5---5---5---|

[Dm]My friend the wind[Cadd9], with b[Dm]reath he is twinn[Cadd9]ed
[Dm]Blow high or [Cadd9]low high torn[G7]adoes to sp[A]in
My [Dm]mother the c[Cadd9]loud, in [Dm]widows black sh[Cadd9]roud
Gives b[Dm]irth to the [Cadd9]earth before f[G7]ields can be plo[A]ughed
[Dm]Up in the s[A]ky we??ve d[Dm]emand to sup[A]ply
[Bb]I am nec[F]essity, b[C]ase of the recipe
I'm the rain
 
 ----5--------3--3--3--5--5--5--3--3--3--5--------3--3--3--3--3--3--5--5--5--|
 ----6--6-8-6-3--3--3--6--6--6--3--3--3--6--6-8-6-3--3--3--3--3--3--5--5--5--|
 ----7--------3--3--3--7--7--7--3--3--3--7--------3--3--3--4--4--4--6--6--6--|
 ----7--------5--5--5--7--7--7--5--5--5--7--------4--4--4--3--3--3--7--7--7--|
 ----5--------x--3--3--5--5--5--3--3--3--5--------3--3--3--5--5--5--7--7--7--|
 ----x--------x--x--x--x--x--x--x--x--x--5--------x--x--x--3--3--3--5--5--5--|

My c[Dm]ousin the s[Cadd9]now lays bl[Dm]ankets be[Cadd9]low
St[Dm]ates that her fl[Cadd9]akes are but thr[G7]eads to be s[A]own
My [Dm]rival the [Cadd9]sun, who r[Dm]ipens the [Cadd9]plum
Is f[Dm]eared and rev[Cadd9]ealed he gives s[G7]ight to the g[A]un
[Dm]Up in the s[A]ky we??ve d[Dm]emand to sup[A]ply
[Bb]I am nec[Fmaj7]essity, [C]base of the recipe
[Dm]Up in the s[A]ky we??ve d[Dm]emand to sup[A]ply
[Bb]I am nec[Fmaj7]essity, [C]base of the recipe
(now it's in four-four time.)
[Dm]ah, [Cadd9] I??m the[Dm] rain,[Cadd9] I??m [Dm]the r[Cadd9]ain he[Dm]eee[Cadd9]eeeeee[Dm]eey[Cadd9] [G7] [C7]
Dm Cadd9 Dm Cadd9 Dm Cadd9 G7 A } x2
Ooooooh Ooohooo Ooooooh Oh Oh }
[Dm]Ooo[Cadd9]oooh [Dm]Ooo[Cadd9]hooo [Dm]Ooo[Cadd9]oooh [G]Oooh [G7]Oooh [Gm]Oooooo[Dm]oh
(now in three-four time)
[Dm]I am the [Cadd9]rain, who??[Dm]s held in di[Cadd9]sdain
Dm Cadd9 G7 A? Dm*
The truth is I??m ruthless I can??t be contained

Important: The song above is NOT stored on the Chordie server. The original song is hosted at www.azchords.com. Chordie works as a search engine and provides on-the-fly formatting. Chordie does not index songs against artists'/composers' will. To remove this song please click here.

Text color:
Chord color:
Chord grids: 
Font size:    
Page size: 

A Bb C C7 Cadd9 Dm F Fmaj7 G G7 Gm
Rate #1 of 4 versions

Login - add to songbook

SHARE PAGE  



You need to log in to post comments