Guitar Tabs, Chords and Lyrics
Update 25:10. 13:00. Site is back up running again. Songbooks are recovered. Woring on getting search back up..


Small Time Blues  Pete Droge

 
 -------------------------------------------------------------------------------

Small Time Blues ?? Pete Droge
 
 -------------------------------------------------------------------------------

Tuning: Standard
*Full lyrics with chords included below tab"
[(F)] [(Bb)]  
 
 e|-----------------------------------------------------------------------------|
 B|------1-------1-------1-------1----------3-------3-------3---3-3---3---------|
 G|------2-------2-------2-------2----------3-------3-------3---3-3---3---------|
 D|------3-------3-------3-------3--------3---3---3---3---3-----3-3---3---------|
 A|----3---3---3---3---3---3---3---3----1-------1-------1-----1-----1-----------|
 E|--1-------1-------1-------1--------------------------------------------------|

Deep In this Melody's a cool fire, wanting to stay with you
Here in my hideaway, Im alright, safe in this song with you
[(F)] [(Bb)]  
 
 e|-----------------------------------------------------------------------------|
 B|------1-------1-------1-------1----------3-------3-------3-------------------|
 G|------2-------2-------2-------2----------3-------3-------3-3-3-2-------------|
 D|------3-------3-------3-------3--------3---3---3---3---3---3-3-3-------------|
 A|----3---3---3---3---3---3---3---3----1-------1-------1-----1-1-0-------------|
 E|--1-------1-------1-------1--------------------------------------------------|

So wide awake and feeling inspired, so much that we can do
Oh the sweet sound we make its locked up tight, all that we sing is true
[(Gm)] [(C)] [(Gm)] [(C)]  
 
 e|------3-------3-------------------------3-------3--------------------------|
 B|------3-------3-------5-6-6-5-----------3-------3-------5-6-6-5------------|
 G|------3-------3-------5-5-5-5-7-5-------3-------3-------5-5-5-5-7-5--------|
 D|--------5-----------5---------5-5---------5-----------5---------5-5--------|
 A|----5-------5---5-3-------------------5-------5---5-3----------------------|
 E|--3-------3------------------------3--------3------------------------------|

I want to hear you to night, Wrapped up in low candlelight
You count it off and we start, We know this number by heart
[(F)] [(C)] [(Bb)] [(F)] [(C)] [(Bb)]  
 
 e|---------------------------------------------------------------------------|
 B|------1--------1--------3-------3-------1-------1-------3---3-3--3---------|
 G|------2--------0--------3-------3-------2-------0-------3---3-3--3---------|
 D|------3------2--------3---3---3---3-----3-----2---2---3--------------------|
 A|----3---3--3-----3--1-------1---------3-----3-------1-----1-----1----------|
 E|--1---------------------------------1-----1--------------------------------|

So please stay I wanna hear you play the small time blues...
[(F)] [(C)] [(Bb)] [(F)] [(C)] [(Bb)]  
 
 e|-----------------------------------------------------------------------------|
 B|------1--------1--------3-------3-------1-------1-------3---3-3--3-----------|
 G|------2--------0--------3-------3-------2-------0-------3---3-3--3-----------|
 D|------3------2--------3---3---3---3-----3-----2---2---3----------------------|
 A|----3------3-----3--1-------1---------3-----3-------1-----1-----1------------|
 E|--1-----1---------------------------1-----1----------------------------------|

You, and me, we're bound by harmony this wild desire...
[(Bb)] [(F)] [(C)] [(Bb)]  
 
 e|---------------------------------------------------------------------------|
 B|-----3---3-3--3-------3---3-3--3------1-------1--------3---3-3---3---------|
 G|-----3---3-3--3-------3---3-3--3------2-------0--------3---3-3---3---------|
 D|---3----------------3-----------------3-----2--------3---------------------|
 A|-1-----1-----1----1-----1-----1-----3-----3-----3--1-----1-----1-----------|
 E|----------------------------------1-----1----------------------------------|

Reaching higher, with them small time blues
[(F)] [(C)] [(Bb)]  
 
 e|---------------------------------------------------------------------------|
 B|------1--------1--------3----3-3---3------3---3-3--------------------------|
 G|------2--------0--------3----3-3---3------3---3-3--------------------------|
 D|------3------2--------3-----------------3----------------------------------|
 A|----3------3-----3--1------1-----1----1-----1-----1------------------------|
 E|--1-----1------------------------------------------------------------------|

Small time blues
******************************************************************************
[F]Deep in this melody's a cool fire
[Bb]Longing to stay with you
[F]So wide awake and feeling inspired
[Bb]So much that we can do
[Gm]I wanna hear ya tonigh[C]t
[Gm]Wrapped up in low candleligh[C]t
[F]Please, [C]stay, I [Bb]wanna hear you play the small time [F]blues[C]
Thats all we g[Bb]ot tonight
[F]You and [C]me, we're [Bb]bound by harmony
this wild [F]desire,[C] is fed by [Bb]reaching higher
and we're still reaching higher, with them small time [F]blues[C] [Bb]
[F]small [C]time [Bb]blues
[F]Here in my hideaway, I'm alright
[Bb]Safe in this song with you
[F]Oh the sweet sound we make is locked up tight
[Bb]All that we sing is true
[Gm]You count it off and we st[C]art
[Gm]We know this number by he[C]art
[F]Please, [C]stay, I [Bb]wanna hear you play the small time [F]blues
[C]That's all we [Bb]got tonight
[F]You and [C]me, were b[Bb]ound by harmony
this wild [F]desire, [C]is fed by [Bb]reaching higher
and we're still reaching higher, with them small time [F]blues[C] [Bb]
[F]small [C]time [Bb]blues
[F]Deep in this melody's a cool fire
[Bb]Longing to stay with you
[F]So wide awake and feeling inspired
[Bb]So much that we can do
[Gm]I wanna hear ya tonigh[C]t
[Gm]Wrapped up in low candleligh[C]t
[F]Please, [C]stay, I [Bb]wanna hear you play the small time [F]blues[C]
That's all we [Bb]got tonight
[F]You and [C]me, we're [Bb]bound by harmony
this wild [F]desire,[C] is fed by [Bb]reaching higher
and were still reaching higher, with them small time b[F]lues[C] [Bb]
[F]small [C]time [Bb]blues
[F]Here in my hideaway, I'm alright
[Bb]Safe in this song with you
[F]Oh the sweet sound we make is locked up tight
[Bb]All that we sing is true
[Gm]You count it off and we st[C]art
[Gm]We know this number by he[C]art
[F]Please, [C]stay, I [Bb]wanna hear you play the small time [F]blues[C]
Thats all we [Bb]got tonight
[F]You and [C]me, were b[Bb]ound by harmony
this wild [F]desire, [C]is fed by [Bb]reaching higher
and were still reaching higher, with them small time b[F]lues[C] [Bb]
[F]small [C]time [Bb]blues
*******************************************************************************

Important: The song above is NOT stored on the Chordie server. The original song is hosted at www.azchords.com. Chordie works as a search engine and provides on-the-fly formatting. Chordie does not index songs against artists'/composers' will. To remove this song please click here.

Text color:
Chord color:
Chord grids: 
Font size:    
Page size: 

Bb C F Gm
Rate #1 of 5 versions

Login - add to songbook

SHARE PAGE  




You need to log in to post comments