Guitar Tabs, Chords and Lyrics
Server problems seems to be fixed. Chordie has been experiencing problems with songs disappearing. These issues now seems to be fixed, but still verifying the fix. If you find anything strange, please email admin@chordie.com.


All Down to Me  Peter Frampton

[Intro] 
[E] [Em] [D6] [C6]  
 
 e|--X--|---X---|---X----|-----X-----|
 B|--9--|---8---|---X----|-----X-----|
 G|--9--|---9---|---11---|-----9-----|
 D|--9--|---9---|---9----|-----7-----|
 A|--11-|---10--|---9----|-----7-----|
 E|--O--|---O---|---10---|-----8-----|

[Verse] 
[E] [Em] [D6] [C6]  
 
 e|--X--|---X---|---X----|-----X-----|
 B|--9--|---8---|---X----|-----X-----|
 G|--9--|---9---|---11---|-----9-----|
 D|--9--|---9---|---9----|-----7-----|
 A|--11-|---10--|---9----|-----7-----|
 E|--O--|---O---|---10---|-----8-----|

[Cborus] 
[B7] [F#m7] [B7/F#] [D9/E]  
 
 e|-----2---|-----2-----|-----2----|-----O-----| Try augmenting with finger-picking because
 B|-----2---|-----2-----|-----4----|-----3-----| he is playing with his writing partner here
 G|-----2---|-----2-----|-----2----|-----5-----| on a second guitar.
 D|-----4---|-----4-----|-----4----|--OH4------|
 A|-----2---|-----2-----|-----2----|-----5-----|
 E|--OH2----|--OH2------|--OH2-----|-----O-----|

[Bridge] 
[Em] [F#11] [G] [A] [B7/F#]  
 
 e|--O---|---O----|---3---|----0----|---2------|
 B|--O---|---O----|---O---|----1----|---O------|
 G|--O---|---2----|---O---|----2----|---2------|
 D|--2---|---O----|---O---|----2----|---1------|
 A|--2---|---O----|---2---|----O----|---2------|
 E|--O---|---2----|---3---|----O----|---2------|

[E]Looking all around me
Looking for di[Em]rections that command me
Moving down a[D6]nother road I don't know
Waiting for [C6]you to wake me up
[E]I can see no way out
It's so dark and [Em]no one can hear me shout
Living in a [D6]new world that I don't know
Asking time to [C6]please stand by
[B7]All down to me
[F#m7]All down to me
[B7]All up to me
[D9/E]All down to me
[E]I want to dance around it
I ain't in [Em]just go dancing with it
I only know I [D6]only know the first step
And I can [C6]see it's alright
[E]Follow in your footprints
While you give me [Em]oh so many subtle hints
Looking up and [D6]I can see a little light
And it's [C6]all down to me
[Cborus] 
[B7]All down to me
[F#m7]All down to me
[B7]All up to me
[D9/E]All down to me
[Em]I've been hurt
I've been cursed
But I'm [F#11]at [G]peace
I've found a rem-[Am]e-dy
And it's [B7/F#]all up to me
[Instrumental] 
Lead on Chords for 8 measures
[E] [Em] [D6] [C6]  
 
 e|--X--|---X---|---X----|-----X-----|
 B|--9--|---8---|---X----|-----X-----|
 G|--9--|---9---|---11---|-----9-----|
 D|--9--|---9---|---9----|-----7-----|
 A|--11-|---10--|---9----|-----7-----|
 E|--O--|---O---|---10---|-----8-----|

[E] [Em] [D6] [C6]  
 
 e|--X--|---X---|---X----|-----X-----|
 B|--9--|---8---|---X----|-----X-----|
 G|--9--|---9---|---11---|-----9-----|
 D|--9--|---9---|---9----|-----7-----|
 A|--11-|---10--|---9----|-----7-----|
 E|--O--|---O---|---10---|-----8-----|

[Cborus] 
[B7]All down to me
[F#m7]All down to me
[B7]All up to me
[D9/E]All down to me
(Outrough)
[E] [Em] [D6] [C6]  
 
 e|--X--|---X---|---X----|-----X-----|
 B|--9--|---8---|---X----|-----X-----|
 G|--9--|---9---|---11---|-----9-----|
 D|--9--|---9---|---9----|-----7-----|
 A|--11-|---10--|---9----|-----7-----|
 E|--O--|---O---|---10---|-----8-----| 


Important: The song above is NOT stored on the Chordie server. The original song is hosted at www.azchords.com. Chordie works as a search engine and provides on-the-fly formatting. Chordie does not index songs against artists'/composers' will. To remove this song please click here.

Text color:
Chord color:
Chord grids: 
Font size:    
Page size: 

A Am B7 B7/F# C6 D6 E Em F#11 F#m7 G
Rate #1 of 1 versions

Login - add to songbook

SHARE PAGE  




You need to log in to post comments