Guitar Tabs, Chords and Lyrics
Major upgrade!! After one year development the new version of Chordie is now online! Please give feedback.


Penny for Your Thoughts   Peter Frampton

 
 D||---12p9p0---------------------|------------------------||
 B||------------------------------|--0h---1p-0/-3\---1-----||
 G||*---------0--0----------------|--0-------0-------0----*||
 D||*------------0----------------|--0----2p-0/-4\---2----*||
 G||-------------0----------------|--0---------------------||
 D||------------------------------|------------------------||

 


 repeat phrase above 3x then advance to I, II, III, or IV


 [I] 


 open G (000000) then harmonics on the 7th fret then harmonics on the 12th fret.


 (repeat from start but advance to [II] below)


 


 [II] and [III]


 

 
 ----------------------------|
 --0--1--3--5--7--8--10--12--| repeat from start
 --0-------------------------| but continue after [IV] below
 --0--2--4--5--7--9--10--12--|
 --0-------------------------|
 ----------------------------|

 


 [IV] 


 

 
 --|----------------------|----------------|
 --|--0----1----3----5----|--5------5------|
 --|--0-------------------|-----5------5---|
 --|--0----2----4----5----|-------5------5-|
 --|--0-------------------|--5------5------|
 --|----------------------|----------------|
 ----------------|----------------|----------------|
 --5------5------|--3------3------|--3------3------|
 -----5------5---|-----3------3---|-----3------3---|
 -------5------5-|-------3------3-|-------3------3-|
 --5------5------|--3------3------|--3------3------|
 ----------------|----------------|----------------|
 --------------------------|--------------------------|
 --0------1----1/-3----3-3-|--0------1----1/-3----3-3-|
 --0-----------0-----------|--0-----------0-----------|
 --0------2----2/-4----4-4-|--0------2----2/-4----4-4-|
 --------------------------|--------------------------|
 --------------------------|--------------------------|
 ----------------|----------------|----------------|----------------|
 --5------5------|--5------5------|--3------3------|--3------3------|
 -----5------5---|-----5------5---|-----3------3---|-----3------3---|
 -------5------5-|-------5------5-|-------3------3-|-------3------3-|
 --5------5------|--5------5------|--3------3------|--3------3------|
 ----------------|----------------|----------------|----------------|
 ----------------|----------------|----------------|----------------||
 --7------7------|--7------7------|--5------5------|--3------3------||
 -----7------7---|-----7------7---|-----5------5---|-----3------3---||
 -------7------7-|-------7------7-|-------5------5-|-------3------3-||
 --7------7------|--7------7------|--5------5------|--3------3------||
 ----------------|----------------|----------------|----------------||


Important: The song above is NOT stored on the Chordie server. The original song is hosted at www.azchords.com. Chordie works as a search engine and provides on-the-fly formatting. Chordie does not index songs against artists'/composers' will. To remove this song please click here.

This song is displayed as text-only. Transposing and tuning is only available for chordpro-songs.
Rate #2 of 2 versions

Login - add to songbook

SHARE PAGE  



You need to log in to post comments