Guitar Tabs, Chords and Lyrics
Update 25:10. 13:00. Site is back up running again. Songbooks are recovered. Woring on getting search back up..


EZ  Pete Yorn

Wow, the other tabs for this song are JUNK. Here is the correct way to play it.
Pete Yorn - Ez
 
 E|----0---------0---------0---------0------|---------------------------|
 B|--3---3-3---3---3-3---3---3-3---3---3-3--|---------------------------|
 G|---2---2-----2---2-----2---2-----2---2---|--X2-----------------------|
 D|-0-------------------0-------------------|---------------------------|
 A|-----------4-------------------4---------|---------------------------|
 E|-----------------------------------------|---------------------------|

Verse:
[Dsus2] [C#] [B] [G]  
 
 E|----0---------0---------0---------3------|---------------------------|
 B|--3---3-3---3---3-3---3---3-3---3---3-3--|---------------------------|
 G|---2---2-----2---2-----2---2-----2---2---|---------------------------|
 D|-0---------------------------------------|---------------------------|
 A|-----------4---------2-------------------|---------------------------|
 E|-------------------------------3---------|---------------------------|

[Dsus2]Only s[C#]ave, t[B]ry to find another w[G]ay,
I‚??m taking what I gave to you again.
Some new day I could understand your face,
you could even hold my hand if you would like to.
Pre Chorus: (use a similar picking pattern to the one above)
It [Em]came up unex[A]pected,
I [Em]had to follow [A]through
and it‚??[Bm]s hard when you wer[C]e working like yo[Asus4]u do.[A]
Chorus:(still same picking pattern)
It was [G]easy when you were [Dsus2]younger,
you can [G]put it back to[Dsus2]gether,
it was [G]there if you ever [Dsus2]wanted it
but you [Em]closed the door and [A]said goodbye for good.
Verse 2:
[Dsus2]So this is a [C#]mistake, [B]try to find a better [G]way,
you were never fond of anything I said.
Can we begin again?
Save it for another friend,
I was happy in my life I won‚??t pretend
PreChorus:
[Em]every time you were [A]expecting
to [Em]reach out and for[A]give this,
I was [Bm]hardened by the [C]look upon your[Asus4] [A]
Chorus:
It was [G]easy when you were [Dsus2]younger,
you can [G]put it back to[Dsus2]gether,
it was [G]there if you ever [Dsus2]wanted it,
but you [Em]closed the door and [A]said goodbye for good
G(hold)
for good‚?¶ for good
Instrumental:
Dsus2, C#, B, G Em, A, Em, A
 
 E|--------------------------------------------------------------|
 B|--------------------------------------------------------------|
 G|------------------0--------------------------------------2~---|
 D|-0--0-2-4--2~-2/4---4--4\2-0------0-------------0--0-2-4------|
 A|-------------------------------------2-0--0-2-4---------------|
 E|-----------------------------3~-------------------------------|

Bm, C, A, A(ring out)
 
 E|-------------------------------------5-------|
 B|-----2-3~---1~---0------3-2--2-3-5~----------|
 G|-2-4----------------2~------------------2----|
 D|---------------------------------------------|
 A|----------------------------------------0----|
 E|---------------------------------------------|

Chorus Quiet:
It was [G]easy when you were [Dsus2]younger,
you can [G]put it back to[Dsus2]gether,
it was [G]there if you ever [Dsus2]wanted it,
but you [Em]closed the door and [A]said goodbye...
easier [G]when you were young[Dsus2]er,
you can [G]put it back to[Dsus2]gether,
it was [G]there if you ever [Dsus2]wanted it,
but you [Em]closed the door and [A]said goodbye for [G]good[Dsus2] [Em]
you [A]said goodbye for [G]good[Dsus2] [Em]
you [A]said goodbye for [G]good
you were [G]easy[Dsus2] [Em] [A]
you were [G]easy[Dsus2] [Em] [A]
....
There it is, Please Rate High. :)

Important: The song above is NOT stored on the Chordie server. The original song is hosted at www.azchords.com. Chordie works as a search engine and provides on-the-fly formatting. Chordie does not index songs against artists'/composers' will. To remove this song please click here.

Text color:
Chord color:
Chord grids: 
Font size:    
Page size: 

A Asus4 B Bm C C# Dsus2 Em G
Rate #2 of 6 versions

Jango Player

Login - add to songbook

SHARE PAGE  




You need to log in to post comments