Guitar Tabs, Chords and Lyrics
Server problems seems to be fixed. Chordie has been experiencing problems with songs disappearing. These issues now seems to be fixed, but still verifying the fix. If you find anything strange, please email admin@chordie.com.


I Wish It Would Rain Down  Phil Collins

Phil Collins & Eric Clapton - Wish It Would Rain Down
INTRO (lead guitar E.C.):
[Ab] [Eb] [Fm]  
 
 E|------------------------------11---------------------------------------|
 B|-11b13~~~-13r11p9-11b13-11~~~----13-11\9-11b12-9-------9/11-11p9-------|
 G|-------------------------------------------------10~~~-----------10~~~-|
 D|-----------------------------------------------------------------------|
 A|-----------------------------------------------------------------------|
 E|-----------------------------------------------------------------------|

[Ab] hold bend[Eb] [Fm]
 
 E|----------------------18b20-18b20-b20-r18p16-18b20-18~~~-15b17-13~~~---|
 B|-------------16-18-16--------------------------------------------------|
 G|-------15-17-----------------------------------------------------------|
 D|-16/18-----------------------------------------------------------------|
 A|-----------------------------------------------------------------------|
 E|-----------------------------------------------------------------------|
 E|-13-15-16-15b16r15-13~~~-------------16-18b20-20r18-18~~~-|
 B|-------------------------16p13-16-18----------------------|
 G|----------------------------------------------------------|
 D|----------------------------------------------------------|
 A|----------------------------------------------------------|
 E|----------------------------------------------------------|

VERSE1:
[Ab] You know I never meant to see you [Eb]again
And I only passed by as a [Fm]friend[Eb]
[Ab] All this time I stayed out of [Eb]sight
I started wondering [Fm]why?
CHORUS:
[Db]Now I, I wish it would [Eb]rain down, down on [Db]me
Yes I wish it would [Eb]rain, rain down on me [Db]now
Yes I wish it would [Eb]rain down, down on [Db]me
Yes I wish it would [Eb]rain on me
VERSE2:
You said you didn`t need a me in your life
I guess you were right
Well I never meant to cause you no pain
But it looks like I did it again
BRIDGE:
[Ab] Though your [Bb]hurt is gone, mines [Db]hanging on, ins[Ab]ide
And I know,[Ab] its eating me through every [Bb]night and day
I`m just [Db]waiting on your [Ab]sign
[Ab]`Cos I know, I know[Eb] I never meant to cause you no pain
And I [Fm]realize I let you down[Eb]
[Ab] But I know in my heart of hearts
[Eb] I knew I`m never gonna hold you [Fm]again
Now I, I wish it would rain down...

Important: The song above is NOT stored on the Chordie server. The original song is hosted at www.azchords.com. Chordie works as a search engine and provides on-the-fly formatting. Chordie does not index songs against artists'/composers' will. To remove this song please click here.

Text color:
Chord color:
Chord grids: 
Font size:    
Page size: 

Ab Bb Db Eb Fm
Rate #1 of 4 versions

Login - add to songbook

SHARE PAGE  




You need to log in to post comments