Guitar Tabs, Chords and Lyrics
Login is temporarily disabled for some users. Do not panic. Will be back in an hour or two. DO NOT REREGISTER!!


Drive Me  Phillip Phillips

Studio version
Standard tuning
Chords:
[F#m] [Bm7] [C#m7] [A5] [B5] [G#5] [E5] [D7M] [C#7] [F#m11] [F7(13-)] [F#m7/E] [B] [D9] [C#7(9+)]  
 
 |-2---2------------------------2---4---0-----0-------------------0--------|
 |-2---3---5--------------------2---6---0-----0-------7------4----7----5---|
 |-2---2---4--------------------2---4---6-----6-------6------4----7----4---|
 |-4---4---2----7---9---6---2---0---6---7-----7-------7------4----7----3---|
 |-4---2---4----7---9---6---2-------4---9-----8-------7------6----5----4---|
 |-2------------5---7---4---0-------------------------0------7-------------|

This are the shapes of the chords that Phillip uses, but you are free to change some, or
all, of that unusual shapes of common chords that we all know.
Intro riff:
 
 |--------------------------------------------|
 |--------------------------------------------|
 |--------------------------------------------|
 |--4--4--4-2---4--4--4-2---4--4--4-2---44-44-|
 |--4--4--4-2---4--4--4-2---4--4--4-2---44-44-|
 |--2--2--2-0---2--2--2-0---2--2--2-0---22-22-|

Verse riff 1:
 
 |-------------------------|
 |-------------------------|
 |-------------------------|
 |--4--4--4-2---4--4--4-2--|
 |--4--4--4-2---4--4--4-2--|
 |--2--2--2-0---2--2--2-0--|

Verse:
(verse riff 1)
All I wonder if my night is gonna change
Bm7 C#m7 (E|-5-4-|)
Lights moving bodies grooving but I cannot feel a thing
(verse riff 1)
I've got one step to the door then i hear
Bm7 C#m7 (E|-5-4-|)
[auuuuu] [uuuu]  
(verse riff 1)
Light gravity pulling me in I'm sinking in this space within
Bm7 C#m7 (E|-5-4-|)
I can't help but giving in
(verse riff 1)
To this stranger with no name
Bm7 C#m7 (E|-5-4-|)
Dancing like a flame, like a moth, I cannot be turned away
[F#m11]Leave me,[F7(13-)] take me[F#m7/E] far from h[B]ere,[D9] sweet lady[C#7(9+)]
Chorus:
[F#m]Do what you do, and do what you will
[D7M]Let me get down, take a hold of the whee[C#7]l
Let me [A5]drive [B5]you [G#5]cra-[A5]zy
[F#m]Do what you do, and do what you will
[D7M]Let me get down, I'll be all that you [C#7]feel
E5 B5 (verse riff1)
I'll let you drive me crazy
Verse:
(verse riff 1)
I love your moves, I like your style With them hips you drive me
Bm7 C#m7 (E|-5-4-|)
I'm the puppet to your strings You keep on moving me
(verse riff 1)
And the world you keep on turning Turning from me now
Bm7 C#m7 (E|-5-4-|)
Everything we have is moving down down down
Bm7 C#m7 (E|-5-4-|)
We just keep on grooving all down down down
[F#m11]Leave me,[F7(13-)] take me[F#m7/E] far from h[B]ere,[D9] sweet lady[C#7(9+)]
Chorus:
(repeat)
Do what you do, and do what you will
Let me get down, take a hold of the wheel
Let me drive you crazy
Do what you do, and do what you will
Let me get down, I'll be all that you feel
I'll let you drive me crazy
Interlude riff:
 
 |--------------------------|
 |--------------------------|
 |--------------------------| 2x
 |--4--4--2-4---4--4--2-4-7-|
 |--4--4--2-4---4--4--2-4-7-|
 |--2--2--0-2---2--2--0-2-5-|

F#m11 F7(13-) F#m7/E B 2x
[D9] [C#7(9+)]  
(repeat)
Do what you do, and do what you will
Let me get down, take a hold of the wheel
Baby let me drive you crazy
Do what you do, and do what you will
Let me get down, I'll be all that you feel
I'll let you drive me
(repaet)
Do what you do, and do what you will
Let me get down, take a hold of the wheel
Baby let me drive you crazy
Do what you do, and do what you will
Let me get down, I'll be all that you feel
I'll let you drive me crazy
(repeat)
I'll let you [E5]drive me[B5] crazy

Important: The song above is NOT stored on the Chordie server. The original song is hosted at www.azchords.com. Chordie works as a search engine and provides on-the-fly formatting. Chordie does not index songs against artists'/composers' will. To remove this song please click here.

Text color:
Chord color:
Chord grids: 
Font size:    
Page size: 

A5 B B5 Bm7 C#7 C#7(9+) C#m7 D9 E5 F#m F#m11 F#m7/E G#5
Rate #1 of 3 versions

Jango Player

Login - add to songbook

SHARE PAGE  



You need to log in to post comments