Guitar Tabs, Chords and Lyrics
Login is temporarily disabled for some users. Do not panic. Will be back in an hour or two. DO NOT REREGISTER!!


Thicket   Phillip Phillips

 
 e|--------------------------------------------------------------------|
 B|--------------------------------------------------------------------|
 G|--------------------------------------------------------------------|
 D|--------------------------------------------------------------------|
 A|--------5---6---3-------5-------3-----------------------------------|
 E|----3---------------6-------5---------------------------------------|

 


 [1] [3] [4] [1] [4] [3] [2] [1]  


 


 INTRO, PART 2 (after this, play part 1 just once before going into the VERSE)


 in the video: 0:19


 

 
 e|--------------------------------------------------------------------|
 B|--------------------------------------------------------------------|
 G|--------------8-----------------------------------------------------|
 D|---------12-------10---8---12--------10-----------------------------|
 A|----10--------------------------12----------------------------------|
 E|--------------------------------------------------------------------|

 


 [1] [4] [1] [2] [1] [4] [3] [1] 


 


 VERSE


 in the video: 0:25


 

 
 e|--------------------------------------------------------------------|
 B|----3-------3------4-------3-------3-------3------------------------|
 G|----0-------0------x-------0-------0-------0------------------------|
 D|----0-------0------1-------0-------0-------x------------------------|2x
 A|---(1)------1-------------(1)------1-------3------------------------|
 E|----3-------x--------------3----------------------------------------|

 


 [3] [1] [1] [3] [1] [3] 


 


 "..when the cracks in your skin start to show" / PRE-CHORUS


 in the video: 0:51 / 1:13


 

 
 e|-----6--------8-----------------------------------------------------|
 B|-----4--------6-----------------------------------------------------|
 G|-----0--------0-----------------------------------------------------|
 D|-----5--------7-----------------------------------------------------|
 A|-----6--------8-----------------------------------------------------|
 E|--------------------------------------------------------------------|

 


 [3] [3]  


 


 CHORUS


 (play the first part twice and then continue with the last two chords)


 in the video: 1:16


 

 
 e|---8-------8-----------------------|--------------------------------|
 B|---6-------6-------8-------6-------|---4-------6--------------------|
 G|---7-------x-------7-------5-------|---3-------5--------------------|
 D|---8-------7-------5-------3-------|---1-------3--------------------|
 A|-----------------------------------|--------------------------------|
 E|-----------------------------------|--------------------------------|

 


 [3] [2] [1] [1] [1] [1] 


 


 BRIDGE ("...it all goes around and round...") | OUTRO*


 after the bridge he goes into the INTRO, PART 2 once again, then PART 1, then continues with the VERSE


 in the video: 1:32


 

 
 e|----------------------------------|---------------------------------|
 B|----------------------------------|---------------------------------|
 G|------------------------8----7----|-----5----10---------------------|
 D|---8----7----5----3-----x----x----|-----x----x----------------------|
 A|---x----x----x----x-----6----5----|-----3----8----------------------|
 E|---6----5----3----1---------------|---------------------------------|


Important: The song above is NOT stored on the Chordie server. The original song is hosted at www.azchords.com. Chordie works as a search engine and provides on-the-fly formatting. Chordie does not index songs against artists'/composers' will. To remove this song please click here.

This song is displayed as text-only. Transposing and tuning is only available for chordpro-songs.
Rate #1 of 1 versions

Jango Player

Login - add to songbook

SHARE PAGE  




You need to log in to post comments