Guitar Tabs, Chords and Lyrics
Login is temporarily disabled for some users. Do not panic. Will be back in an hour or two. DO NOT REREGISTER!!


Where We Came From  Phillip Phillips

Tuning: Standard
Intro
I must've used
 
 e|--3-------------|--3-------------|----3-----------|----3-----2-0---||
 B|--3-------------|--3-------------|----3-----------|----3-----3-0-3-||
 G|----------------|----------------|----------554422|--------------2-||
 D|----------------|----------------|----------------|--------0-------||
 A|----------0-5-4-|----------0-5-4-|3-3-----2-------|3-3-------------||
 E|0-----3---------|0-----3---------|----------------|----------------||

Verse I
up all my... 'Cause the words we said in... Alone
 
 e|--3-------------|--3-------------|----3-----------|----3-----2-0---|
 B|--3-------------|--3-------------|----3-----------|----3-----3-0-3-|
 G|----------------|----------------|----------554422|--------------2-|
 D|----------------|----------------|----------------|--------0-------|
 A|----------0-5-4-|----------0-5-4-|3-3-----2-------|3-3-------------|
 E|0-----3---------|0-----3---------|----------------|----------------|

Verse II
through the darkness... I wanna hear... Hang on every word...
 
 e|--3-------------|--3-------------|----3-----------|----3-----2-0---||
 B|--3-------------|--3-------------|----3-----------|----3-----3-0-3-||
 G|----------------|----------------|----------554422|--------------2-||
 D|----------------|----------------|----------------|--------0-------||
 A|----------0-5-4-|----------0-5-4-|3-3-----2-------|3-3-------------||
 E|0-----3---------|0-----3---------|----------------|----------------||

Pre-chorus
[Em] Climb the moun[C]tain,[Bm] swim for shor[D]e [Em] Bring it back to [C]how it [Bm]was befor[D]e
Chorus
Take it [Cadd9]out, blow it [G]up Ignite the [D]memory in bet[Em]ween us
Through the [Cadd]storm and all the [G]dust Take it [D]out of these walls with a [Em]cannonball
[C] But don't let it [D]go, don't [Em]give up[D] the gho[C]st
[D] While staring at the moon and the sun[Dsus4] Just trying to remember where we came
Interlude Verse III
from I connect the stars... In the empty space...
 
 e|--3-------------|--3-------------||--3-------------|--3-------------|----3-----------|----3-----2-0---||
 B|--3---------5---|--3-------------||--3-------------|--3-------------|----3-----------|----3---------3-||
 G|--------0247-74-|---------2------||----------------|----------------|----------5-4-2-|----------------||
 D|------02-------7|------025-5424--||2---------------|----------------|----------------|----------------||
 A|----------------|----------------||----------------|----------------|3-3-------------|3-3-------------||
 E|0---------------|0---------------||----------------|0---------------|----------------|----------------||

Pre-chorus
Chorus
[C]Ohhh[G], [C] [G] [C]Ohhh[G],[D]
[C]Ohhh[G], [C] [G] [C]Ohhh[G],[D]
Pre-chorus
Chorus

Important: The song above is NOT stored on the Chordie server. The original song is hosted at www.azchords.com. Chordie works as a search engine and provides on-the-fly formatting. Chordie does not index songs against artists'/composers' will. To remove this song please click here.

Text color:
Chord color:
Chord grids: 
Font size:    
Page size: 

Bm C Cadd9 D Dsus4 Em G
Rate #1 of 4 versions

Login - add to songbook

SHARE PAGE  



You need to log in to post comments