Guitar Tabs, Chords and Lyrics
Server problems seems to be fixed. Chordie has been experiencing problems with songs disappearing. These issues now seems to be fixed, but still verifying the fix. If you find anything strange, please email admin@chordie.com.


Divine Romance  Phil Wickham

 
 -------------------------------------------------------------------------------

Divine Romance - Phil Wickham
 
 -------------------------------------------------------------------------------

This is the acoustic version of the song
... so it's not exactly like the recording.
Tuning:Half-Step Down
Intro and Verse 1:
 
 eb|-----------------------------------------0-----------------------------------|
 Bb|-----1------1----1---------1------------1--1---------------------------------|
 Gb|-0h2-----0-----0----0--0h2-----0---------------------------------------------|
 Db|----3--2--2---2----2------3--2--2----0h2-------------------------------------|
 Ab|------3-0--0-0--0-0--0------3-0--0-------------------------------------------|
 Eb|-1----------------------1---------3-3-----3-3--------------------------------| x6

* *
The fullness of, your grace is here with me
The richness of, your beauty's all I see
The brightness of, your glory has arrived
in your presence God, I'm completely satisfied
Chorus:
 
 eb|-----------------------------|---------------------------0--------------------------|
 Bb|------1----1-----------1-----|-----1--------------------1-----1-0-------------------|
 Gb|-0-----0------0--------------|-0----0-0---0----0------------------------------------|
 Db|---3-----3--2--2----0h2------|---3------2--2-2--2----0h2---0h2----------------------|
 Ab|--3-3---3-3--0--0------------|--3-3--3-3-0--0-0--0----------------------------------|
 Eb|-----------------3-3-------x2|--------------------3-3-----3-----3-------------------|

For you, I sing I dance
Rejoice in this divine romance
Lift my heart and my hands
To show my love, to show my love
Verse 2:
A d[F]eep deep f[Am]lood, an oc[F]eean fl[C]ows from y[G]ou
Of d[F]eep deep l[Am]ove, yeah it's fi[F]llin' [C]up the r[G]oom
Your inn[F]ocent bl[Am]ood, has was[F]hed my gu[C]ilty l[G]ife
In your pre[F]sence [Am]God, I'm comp[F]letely sa[C]tisif[G]ed
Chorus:
For y[F]ou, I sing I dance[C] [G]
Rej[F]oice in this divine romance[C] [G]
Lift my hea[F]rt and m[C]y h[Am]ands
to show my lo[G]ve, to show my love
Chords:
[F] [Am] [C] [G]  
 
 eb|-----0-----|-----0-----|-----0-----|-----0-----|
 Bb|-----1-----|-----1-----|-----1-----|-----1-----|
 Gb|-----0-----|-----2-----|-----0-----|-----0-----|
 Db|-----3-----|-----2-----|-----2-----|-----0-----|
 Ab|-----3-----|-----0-----|-----3-----|-----0-----|
 Eb|-----0-----|-----0-----|-----0-----|-----3-----|

| h hammer-on
| * use thumb to hit note
That's basically the whole song.. it's real simple
once you get the hang of it... all the other tabs
i found were only kind of right... I worked off of
those and also watching Phil himself to get this
tab as right as possible... HOPE YOU ENJOI!!!
===============================================================================

Important: The song above is NOT stored on the Chordie server. The original song is hosted at www.azchords.com. Chordie works as a search engine and provides on-the-fly formatting. Chordie does not index songs against artists'/composers' will. To remove this song please click here.

Text color:
Chord color:
Chord grids: 
Font size:    
Page size: 

Am C F G
Rate #1 of 13 versions

Jango Player

Login - add to songbook

SHARE PAGE  




You need to log in to post comments