Guitar Tabs, Chords and Lyrics
Server problems seems to be fixed. Chordie has been experiencing problems with songs disappearing. These issues now seems to be fixed, but still verifying the fix. If you find anything strange, please email admin@chordie.com.


Alright  Pilot Speed

Pilot Speed - Alright
= Chords =
[F] [Dm] [Am] [C]  
 
 |--1--|--1--|--0--|--0--|
 |--1--|--3--|--1--|--1--|
 |--2--|--2--|--2--|--0--|
 |--3--|--0--|--2--|--2--|
 |--3--|--x--|--0--|--3--|
 |--1--|--x--|--0--|--0--|

[Intro] F - Dm - Am - C (the whole song through)
= Piano =
 
 e|-----0-------|-0-1-0---0----|
 H|-------1-----|-------3------|
 G|-0-2---------|--------------|
 D|-------------|--------------|
 A|-------------|--------------|
 E|-------------|--------------|

[Verse 1] F - Dm - Am - C
And tonight I lack the strength to even move
When you walked, now watch me die
For I know this is harder for you
For love has let you down
 
 e|----------------|--------------|----------------|-------------|
 H|--------------1-|--------------|----------------|-------------|
 G|---0-2b3r2~~~---|-2~~----------|---0-2b3r2~~~---|-0-----------|
 D|-3--------------|--------------|----------------|-------------|
 A|----------------|--------------|----------------|-------------|
 E|----------------|--------------|----------------|-------------|

And the road ahead is lined with broken dreams
So walk, you walk on by
And I failed to give you everything you need
For the fears behind your eyes
[Cborus] 
 
 e|-8-8-8-8-8-8-8-8-|-5-5-5-5-6-6-6-6-|-8-8-8-8-8-8-8-8-|---------6-6-6-6-|
 H|-----------------|-----------------|-----------------|-8-8-8-8---------|
 G|-----------------|-----------------|-----------------|-----------------|
 D|-----------------|-----------------|-----------------|-----------------|
 A|-----------------|-----------------|-----------------|-----------------|
 E|-----------------|-----------------|-----------------|-----------------|

When I can't feel you, I'm not alright
Not alright, not alright
When I can't heal you, I'm not alright
I'm not alright, I'm not alright
When I can't feel you
I'm not...
[Verse 2] 
Jesus, as you throw me on the rocks
For love I left your side
'Cause I believed in love and beauty's wiles
Where heaven shone from her eyes
[Indistinct] 
Chained to your train
I'm wanting you to say
I'm wanting you to say
I wanted to believe
Chained to your train
I'm wanting you to say
I'm wanting you to say
[Solo] 
 
 e|----------------|----------------|----------------|-----------------|
 H|----------------|----------------|----------------|-5-5-5-5-5-5-5-5-|
 G|-5------5-5-5-7-|--------5-5-5-7-|--------5-5-5-7-|-----------------|
 D|----------------|-7--------------|-7--------------|-----------------|
 A|----------------|----------------|----------------|-----------------|
 E|----------------|----------------|----------------|-----------------|

[Verse 3] 
Tell me that it wasnâ??t all for naught,
It's such a waste now
It's such a waste now, come on
Cause I know you're scared
But baby don't you hide
It's such a waste
You'll stand alone now
You'll make it somehow
============================================
~ Vibrato
b Bend
r Release

Important: The song above is NOT stored on the Chordie server. The original song is hosted at www.azchords.com. Chordie works as a search engine and provides on-the-fly formatting. Chordie does not index songs against artists'/composers' will. To remove this song please click here.

Text color:
Chord color:
Chord grids: 
Font size:    
Page size: 

Am C Dm F
Rate #1 of 3 versions

Jango Player

Login - add to songbook

SHARE PAGE  



You need to log in to post comments