Guitar Tabs, Chords and Lyrics
Major upgrade!! After one year development the new version of Chordie is now online! Please give feedback.


A Pillow of Winds  Pink Floyd

A PILLOW OF WINDS
(Waters/Gilmour)
by Pink Floyd
from the album "Meddle" (1971)
I was surprised not to find a tab of this beautiful song on the net
(just chords but in a not very accurate version) so I decided to post it
like I play it on this standard tuning simplyfied version (there are
more guitars than this on the record, including two diferent ones for
the slide fills). Timing and vibrato are the hardest parts to get
the slide sound, but with a little practice I think this will be good
enought to get started. Here goes the slide fills and the chords.
Sorry for my english I'm from Argentina.
_______________Slide fills______________
(Words and chords only for reference, no timing implied.)
Notation:
/12: slide up to 12
(10 : slide down from 10
7(: slide down to 7
5/7: slide up from 5 to 7
7(5: slide down from 7 to 5
5///8: slow slide up
7(((4: slow slide down
2/slow/7: even slower up slide
Intro
 
 e|-----/12----7(5///7--|--10/12-12---11---7(((4-4/5-5(4-----------|
 B|---------------------|---------------------------------5/7------|
 G|---------------------|------------------------------------------|
 D|---------------------|------------------------------------------|
 A|---------------------|------------------------------------------|
 E|---------------------|------------------------------------------|

..eiderdown.. .. The sound
 
 e|---/12-------17------|--10/12-12(11------7(((4-4/5-5(4----------|
 B|---------------------|----------------------------------7-------|
 G|---------------------|------------------------------------------|
 D|---------------------|------------------------------------------|
 A|---------------------|------------------------------------------|
 E|---------------------|------------------------------------------|

.. I lie low..
 
 e|----------2/7(2------------------2/slow/----5/7-----------------|
 B|------------------7/9(7--5/7----------------------------7///10--|
 G|----------------------------------------------------------------|
 D|----------------------------------------------------------------|
 A|----------------------------------------------------------------|
 E|----------------------------------------------------------------|
 e|--10-10-10/12-12---10-10-10/12-12--10-10/12-12---14-12(10--10(7-|
 B|--10-10-10/12------10-10-10/12-----------------12---------------|
 G|----------------------------------------------------------------|
 D|----------------------------------------------------------------|
 A|----------------------------------------------------------------|
 E|----------------------------------------------------------------|

When night.. ..floor
 
 e|------------------------------------------7/12--12--10--10(7----|
 B|--7/8----8/10----10/12---12(10---8(7----------------------------|
 G|----------------------------------------------------------------|
 D|----------------------------------------------------------------|
 A|----------------------------------------------------------------|
 E|----------------------------------------------------------------|

As darkness.. ..warm
 
 e|-------------------------7/12---------7/12------12/14---14/15---|
 B|-7/8----8/10----10/12-----------8/10----------------------------|
 G|----------------------------------------------------------------|
 D|----------------------------------------------------------------|
 A|----------------------------------------------------------------|
 E|----------------------------------------------------------------|

Now wakes.. ..gone
 
 e|--15(12--12(10--------------------------------------------------|
 B|--------------------------------------7/9--7--5/7(5----3/5------|
 G|----------------------------------------------------------------|
 D|----------------------------------------------------------------|
 A|----------------------------------------------------------------|
 E|----------------------------------------------------------------|

Green fields... ...dawn.
 
 e|---5/7---5--5(3----5/slow/---5/7--7----5(3------3/5-------------|
 B|----------------------------------------------------------------|
 G|----------------------------------------------------------------|
 D|----------------------------------------------------------------|
 A|----------------------------------------------------------------|
 E|----------------------------------------------------------------|
 e|---12--12/10----/7----------------------------------------------|
 B|----------------------------------------------------------------|
 G|----------------------------------------------------------------|
 D|----------------------------------------------------------------|
 A|----------------------------------------------------------------|
 E|----------------------------------------------------------------|

Instrumental part:
[E/F#] [Bm/A] [Am]  
 
 e|--7/--------------2/----------------------------8-8(6/8(6--6//8-|
 B|-----(7----------------4/6--6/7(6/7(6--3/6---6/8----------------|
 G|----------------------------------------------------------------|
 D|--------(5------------------------------------------------------|
 A|----------------------------------------------------------------|
 E|----------------------------------------------------------------|

Bm/A Em/F# (play with your free fingers here)
 
 e|--6/8--6/8--6/slow/--12----10--7--------------------------------|
 B|----------------------------------7--8-7-5----5-5---------------|
 G|------------------------------------------7---------------------|
 D|----------------------------------------------------------------|
 A|----------------------------------------------------------------|
 E|----------------------------------------------------------------|

[Em/F#] [Em/F#] [Em/F#]  
 
 e|------7/12------10-------5/7-----7/12-------(10-----------------|
 B|--3/5-----------------------------------------------------------|
 G|----------------------------------------------------------------|
 D|----------------------------------------------------------------|
 A|----------------------------------------------------------------|
 E|--------------------------------------------------------1/7-----|

[E+7] [F#m/E] [E+7] [F#m/E]  
 
 e|------------------------------7--5(4--2/4-----------------------|
 B|--2/9-9--9/10----9--5/7-----------------------4/5--5/7(5-5/7----|
 G|----------------------------------------------------------------|
 D|----------------------------------------------------------------|
 A|----------------------------------------------------------------|
 E|----------------------------------------------------------------|

And deep beneath... ..down.
 
 e|-----------------------------10/12-12-11--7(4--4/5(4------------|
 B|--4/7---4(7-------------------------------------------5/7-------|
 G|----------------------------------------------------------------|
 D|----------------------------------------------------------------|
 A|----------------------------------------------------------------|
 E|----------------------------------------------------------------|

Sleepy time.. ..low.
 
 e|----------------------------------------------------------------|
 B|----4/9--9(4---4/9--9(4-----7/9--7(5/7--7/9--9/11(9--7--7(5-----|
 G|----------------------------------------------------------------|
 D|----------------------------------------------------------------|
 A|----------------------------------------------------------------|
 E|----------------------------------------------------------------|

and I rise... ...the sky
 
 e|---------------------------------------------------2/7(2--------|
 B|----5(4/5(4/5---5/7---5/7-----7/9-7(5/7------5/7---------7///10-|
 G|----------------------------------------------------------------|
 D|----------------------------------------------------------------|
 A|----------------------------------------------------------------|
 E|----------------------------------------------------------------|

And the night winds die.
 
 e|--10-10-10/12-12---10-10-10/12-12--10-10/12-12--10-10/12--12----|
 B|--10-10-10/12------10-10-10/12----------------------------------|
 G|----------------------------------------------------------------|
 D|----------------------------------------------------------------|
 A|----------------------------------------------------------------|
 E|----------------------------------------------------------------|
 e|--12/17---15/17(12---12/17-16(--12----9/12(---7----4/5(4--2-----|
 B|----------------------------------------------------------------|
 G|----------------------------------------------------------------|
 D|----------------------------------------------------------------|
 A|----------------------------------------------------------------|
 E|----------------------------------------------------------------|
 e|--9--9/12(--9----4/5(4(2/4--4---4/7--7/9---14--14/16--14--12/14-|
 B|----------------------------------------------------------------|
 G|----------------------------------------------------------------|
 D|----------------------------------------------------------------|
 A|----------------------------------------------------------------|
 E|----------------------------------------------------------------|

Fades...
 
 e|--14/16(14---12/14--12/15(9---12(9------------------------------|
 B|----------------------------------------------------------------|
 G|----------------------------------------------------------------|
 D|----------------------------------------------------------------|
 A|----------------------------------------------------------------|
 E|----------------------------------------------------------------|

______________Chords_____________
Chords must be played repeating this pattern all through the song:
 
 e|-0-------------0----|
 B|----------0---------|
 G|-------0------------|
 D|----0--------0------|
 A|-0-------------0----|
 E|---------0----------|

(Start again here)
It's the same pattern used for Beatles songs "Julia",
"Dear Prudence", "Octopus Garden" and the beguining of
"Happiness is a warm gun" and John learned it from folk singer Donovan.
When added notes are indicated for chords (E/F# for example)
these must be played on 5th and 6th strings.
Intro:
[E/F#] [F#m/E] [E+7]  
[F#m/E]A cloud of eiderdown drawns around me [F#m7]softening t[E+7]he sound
sleepy ti[Bm/A]me when I lie with my love my side
and she is breathing [E/F#]low.
And the candle die[E/F#]s.
[Em/F#]When night comes down you lock the door
the book falls to the floor.
As darkness falls and waves roll by,
the season change, the wind is warm.
Now wakes the owl, now sleep the swan
behold the dream, the dream is gone.
Em/F# Em/F#/A* Em/G Em/F# Em
Green fields a cold rain is falling in a golden dawn
(Instumental)
[Em/F#] [Bm/A] [Am] [Bm/A]  
[Em/F#]E+7 F#m/E [Em/F#]E+7 F#m/E (verse starts here)
[F#m/E]And deep beneath the ground
the early morning sounds and [F#m7]I go do[E+7]wn.
Sleepy ti[Bm/A]me when I lie with my love by my side
and she's breathing [E/F#]low.
And I r[Bm/A]ise like a bird in the haze
when the first rays [E/F#]touch the sky.
And the night winds [E/F#]die.
F#m/E E+7 F#m/E E+7 Bm/A ...Fades.
* I play this chord like this:
e|--0---|
B|--0---|
G|--0---| Em/F#/A
D|--2---| (I don´t know the actual name)
A|--0---|
E|--2---|
I think Em/G might be actually G6
anyway this is the chord:
e|--0---|
B|--0---|
G|--0---|
D|--2---|
A|--2---|
E|--3---|
Enjoy it !
Comments, corrections, or whatever are welcome.
By the way, Anybody out there has a tab of "the Embryo" live at the BBC version ?
bye !!

Important: The song above is NOT stored on the Chordie server. The original song is hosted at www.azchords.com. Chordie works as a search engine and provides on-the-fly formatting. Chordie does not index songs against artists'/composers' will. To remove this song please click here.

Text color:
Chord color:
Chord grids: 
Font size:    
Page size: 

Am Bm/A E+7 E/F# Em/F# F#m/E F#m7
Rate #1 of 5 versions

Login - add to songbook

SHARE PAGE  




You need to log in to post comments