Guitar Tabs, Chords and Lyrics
Major upgrade!! After one year development the new version of Chordie is now online! Please give feedback.


Brain Damage   Pink Floyd

 
 e|-2--------2-------|-2----------2-----|---2--------2-------|-2----------2----

 


 - |


 

 
 b|-3----3-----------|-3--3-------------|---3----3-----------|-3--3------------

 


 -*|


 

 
 g|-2-----------------|-2------2---------|---2-----------------|-2------2------

 


 --- |


 

 
 d|-0------------0---|-0--------------0-|---0-------------0--|-0--------------0

 


 - |


 

 
 a|--------------------|-------------------|----------------------|------------
 -------*|
 e|--------------------|-------------------|----------------------|------------
 ------- |

 


 


 this part is for all the verses


 "the lunatic is on the grass...."


 4. 4 8 4 4. 8 8 8 4 4. 4 8 4 4. 8 8 8 4


 

 
 e|-2--------2-------|-2----------2-----|-1---------1------|--1----------1-----

 


 [-]  

 
 b|-3----3-----------|-3--3-------------|-0----0-----------|--0---0------------
 g|-2-----------------|-2------2---------|-0----------------|--0-------0-------

 


 [---]  

 
 d|-0------------0---|-0--------------0-|-0-------------0--|--0--------------0-

 


 [--]  

 
 a|--------------------|-------------------|-------------------|---------------
 ------
 e|--------------------|-------------------|-3----------------|--3-------------


Important: The song above is NOT stored on the Chordie server. The original song is hosted at www.azchords.com. Chordie works as a search engine and provides on-the-fly formatting. Chordie does not index songs against artists'/composers' will. To remove this song please click here.

This song is displayed as text-only. Transposing and tuning is only available for chordpro-songs.
Rate #1 of 14 versions

Jango Player

Login - add to songbook

SHARE PAGE  




You need to log in to post comments