Guitar Tabs, Chords and Lyrics
Major upgrade!! After one year development the new version of Chordie is now online! Please give feedback.


Take It Back  Pink Floyd

"Take It Back" by: Pink Floyd
Not seen this tabbed very often so heres my little attempt at
what you might call an accoustic version. (strummed)
I know the chord names are wrong but they were the best I could come
up with with only Guitar Pro for reference...
Enjoy! :)
P.S. The (G) on the first 'back' of each chorus isnt really,
necessary... i.e. to taste
[(G)] [(Cadd9)]  
 
 e:-----3-------| e:------3------|
 B:-----3-------| B:------3------|
 G:-------------| G:-------------|
 D:-------------| D:------2------|
 A:-----2-------| A:------3------|
 E:-----3-------| E:-------------|

(Em/C) (G*)
 
 e:------3------| e:------3------|
 B:-------------| B:-------------|
 G:-------------| G:-------------|
 D:------2------| D:-------------|
 A:------3------| A:------2------|
 E:-------------| E:------3------|

[(C)] [(Em/Cadd9)]  
 
 e:-------------| e:------3------|
 B:-----1-------| B:------1------|
 G:-------------| G:-------------|
 D:-----2-------| D:------2------|
 A:-----3-------| A:------3------|
 E:-------------| E:-------------|

[(Csus2)] [(Gsus4)]  
 
 e:-----3-------| e:------3------|
 B:-----1-------| B:-------------|
 G:-------------| G:-------------|
 D:-------------| D:------3------|
 A:-----3-------| A:------3------|
 E:-------------| E:-------------|

(G) (Cadd9) (Em/C) (G*)
Her love rains down on me, easy as the breeze
(G) (Cadd9) (Em/C) (G*)
I listen to her breathing, it sounds like the waves on the sea
I was [(C)]thinking all about her, [(Em/Cadd9)]burning with rage and desire
(G) (Cadd9) (Em/C) (G*)
We were spitting into darkness, and the earth was on fire
She could[(Cadd9)] Take it [(G)]back, She might [(Csus2)]take it back
So[(G)]meday
[(G)]So I spied on her[(Cadd9)], I lied to [(G)]her, I[(Gsus4)] made promises I could not keep.[(G)]
(Cadd9) (Em/C) (G*)
And I hear her laughter rising, rising from the deep.
And [(C)]make her prove her love to me, I[(Em/Cadd9)] take all that I can take.
(G) (Cadd9) (Em/C) (G*)
And I push her to the limit, to see if she will break.
She might[(Cadd9)] take it [(G)]back, She could [(Csus2)]take it back
So[(G)]meday
(G) (Cadd9) (Em/C) (G*)
Now I have seen the warnings, screaming from all sides
(G) (Cadd9) (Em/C) (G*)
It isnt easy to ignore them, God knows I've tried
[(C)]All this temptation, you know it [(Em/Cadd9)]turned my faithfull eyes
(G) (Cadd9) (Em/C) (G*)
Till I couldn't see the danger, or hear the rising tide
She could [(Cadd9)]take it b[(G)]ack, she will [(Csus2)]take it back
So[(G)]meday
She will [(Cadd9)]take it b[(G)]ack. She will [(Csus2)]take it back
So[(G)]meday
She will [(Cadd9)]take it b[(G)]ack. She will [(Csus2)]take........[(Gsus4)]....... it back
Some[(Cadd9)]day [G]

Important: The song above is NOT stored on the Chordie server. The original song is hosted at www.azchords.com. Chordie works as a search engine and provides on-the-fly formatting. Chordie does not index songs against artists'/composers' will. To remove this song please click here.

Text color:
Chord color:
Chord grids: 
Font size:    
Page size: 

G
Rate #1 of 3 versions

Jango Player

Login - add to songbook

SHARE PAGE  



You need to log in to post comments