Guitar Tabs, Chords and Lyrics
Major upgrade!! After one year development the new version of Chordie is now online! Please give feedback.


The Final Cut  Pink Floyd

[Am] [F] [Am]  
 
 e|---------------|--------20p17~~-|---------------|----------------|--------------|
 B|-18b20~~-------|----------------|---------------|------------18--|-18b20~~------|
 G|---------------|----------------|---------------|---------17-----|--------------|
 D|---------------|----------------|---------------|----------------|--------------|
 A|---------------|----------------|---------------|----------------|--------------|
 E|---------------|----------------|---------------|----------------|--------------|

[C] [Bb]  
 
 e|---------------|----------------|---------------|-------------------|
 B|----18--17p15--|----------------|--------15--17-|-17b18r17--15------|
 G|---------------|-17~~-----------|-----17--------|--------------17b19|
 D|---------------|----------------|---------------|-------------------|
 A|---------------|----------------|---------------|-------------------|
 E|---------------|----------------|---------------|-------------------|

| | |
 
 e|---------------|-------------------|
 B|-----17-18--20-|-20b21b20--18-17b18|
 G|---------------|-------------------|
 Begin second guitar D|---------------|-------------------|
 A|---------------|-------------------|
 E|---------------|-------------------|

[Dm]  
 
 e|--------------------|---------------------------------|---------------|
 B|--------------------|---------------------------------|---------------|
 G|17b19r17--14--12b14\|-----10-12--12b14r12--12b14------|-10\0----------|
 D|--------------------|-/12-----------------------------|---------------|
 A|--------------------|---------------------------------|---------------|
 E|--------------------|---------------------------------|---------------|

| |
 
 e|--------------------|

B|17b18r17--15--17b19-|
 
 G|--------------------|
 D|--------------------| End second guitar
 A|--------------------|
 E|--------------------|

[Gm7] [C]  
 
 e|--------------------|------------------|---------------|------------------------|
 B|------20b(22)b23r20-|-------------18---|-18b20~~-------|--18--17p15-------------|
 G|--------------------|----------17------|---------------|-----------17--15--14p12|
 D|--------------------|------------------|---------------|------------------------|
 A|--------------------|------------------|---------------|------------------------|
 E|--------------------|------------------|---------------|------------------------|

[F]  
 
 e|---------------------|
 B|---------------------|
 G|-----10~~~-----------|
 D|---------------------|
 A|---------------------|
 E|---------------------| 


Important: The song above is NOT stored on the Chordie server. The original song is hosted at www.azchords.com. Chordie works as a search engine and provides on-the-fly formatting. Chordie does not index songs against artists'/composers' will. To remove this song please click here.

Text color:
Chord color:
Chord grids: 
Font size:    
Page size: 

Am Bb C Dm F Gm7
Rate #1 of 5 versions

Jango Player

Login - add to songbook

SHARE PAGE  




You need to log in to post comments