Guitar Tabs, Chords and Lyrics
Update 25:10. 13:00. Site is back up running again. Songbooks are recovered. Woring on getting search back up..


Pop in, Pop Out!  Plastiscines

Pop in pop out
As recorded by Plastiscines
(From the Album LP1)
Tuning: E A D G B e (Standard)
Guitar I
H H Q Q Q Q
 
 e|----------------|---------------|
 B|----------------|---------------|
 G|---17----17-----|--17-17-17-17--|
 D|----------------|---------------|
 A|----------------|---------------|
 E|----------------|---------------|

Lyrics: Pop in pop out
Guitar I
[E] [E] [E] [E] [E] [E] [E] [E] [E] [E] [E] [E] [E] [E]  
 
 e|--------------------------------|-------------------------------------|
 B|--------------------------------|-------------------------------------|
 G|---12-15--12-15--12-15-17-------|---12-15??-12-15--21-19-17------------|
 D|--------------------------------|-------------------------------------|
 A|--------------------------------|-------------------------------------|
 E|--------------------------------|-------------------------------------|

|
|Guitar II
| S S S S S S S S S S S S S S S S S S S S S S S S
 
 e|--------------------------------|-------------------------------------|
 B|--------------------------------|-------------------------------------|
 G|--------------------------------|-------------------------------------|
 D|-10-x-x--10-x-x--10-x-10-x-10-x-|--10-x-x--10-x-x--10-x-10-x-10-x-----|
 A|-10-x-x--10-x-x--10-x-10-x-10-x-|--10-x-x--10-x-x--10-x-10-x-10-x-----|
 E|-8--x-x--8--x-x--8--x-8--x-8??-x-|--8--x-x--8--x-x--8--x-8--x-8--x-----|

Guitar I
[E] [E] [E] [E] [E] [E] [E] [E] [E] [E] [E] [E] [E] [E]  
 
 e|--------------------------------|-------------------------------------|
 B|--------------------------------|-------------------------------------|
 G|---12-15--12-15--12-15-17-------|---12-15??-12-15--21-19-17------------|
 D|--------------------------------|-------------------------------------|
 A|--------------------------------|-------------------------------------|
 E|--------------------------------|-------------------------------------|

|
|Guitar II
| S S S S S S S S S S S S S S S S S S S S S S S S
 
 e|--------------------------------|-------------------------------------|
 B|--------------------------------|-------------------------------------|
 G|--------------------------------|-------------------------------------|
 D|-10-x-x--10-x-x--10-x-10-x-10-x-|--10-x-x--10-x-x--10-x-10-x-10-x-----|
 A|-10-x-x--10-x-x--10-x-10-x-10-x-|--10-x-x--10-x-x--10-x-10-x-10-x-----|
 E|-8--x-x--8--x-x--8--x-8--x-8??-x-|--8--x-x--8--x-x--8--x-8--x-8--x-----|

Guitar I
[E] [E] [E] [E] [E] [E] [E] [E] [E] [E] [E] [E] [E] [E] [E]  
 
 e|--------------------------------|-------------------------------------|
 B|--------------------------------|-------------------------------------|
 G|---19-19-19-19--21-19-21-21-----|---17-17-17-17-21-19-17--------------|
 D|--------------------------------|-------------------------------------|
 A|--------------------------------|-------------------------------------|
 E|--------------------------------|-------------------------------------|

|
|Guitar II
| S S S S S S S S S S S S
 
 e|--------------------------------|-------------------------------------|
 B|--------------------------------|-------------------------------------|
 G|--7-x-x--7-x-x--9-x-9-x-9-x-----|-------------------------------------|
 D|--7-x-x--7-x-x--9-x-9-x-9-x-----|--10-x-x--10-x-x--10-x-10-x-10-x-----|
 A|--5-x-x--5-x-x--7-x-7-x-7-x-----|--10-x-x--10-x-x--10-x-10-x-10-x-----|
 E|-----------------??--------------|--8--x-x--8--x-x--8--x-8--x-8--x-----|

Guitar I
[E] [E] [E] [E] [E] [E] [E] [E] [E] [E] [E] [E] [E] [E] [E]  
 
 e|--------------------------------|-------------------------------------|
 B|--------------------------------|-------------------------------------|
 G|---19-19-19-19--21-19-21-21-----|---17-17-17-17-21-19-17--------------|
 D|--------------------------------|-------------------------------------|
 A|--------------------------------|-------------------------------------|
 E|--------------------------------|-------------------------------------|

|
|Guitar II
| S S S S S S S S S S S S
 
 e|--------------------------------|-------------------------------------|
 B|--------------------------------|-------------------------------------|
 G|--7-x-x--7-x-x--9-x-9-x-9-x-----|-------------------------------------|
 D|--7-x-x--7-x-x--9-x-9-x-9-x-----|--10-x-x--10-x-x--10-x-10-x-10-x-----|
 A|--5-x-x--5-x-x--7-x-7-x-7-x-----|--10-x-x--10-x-x--10-x-10-x-10-x-----|
 E|-----------------??--------------|--8--x-x--8--x-x--8--x-8--x-8--x-----|

Repeat all three times and then:
Guitar I
H H Q Q Q Q
 
 e|----------------|---------------|
 B|----------------|---------------|
 G|---17----17-----|--17-17-17-17--|
 D|----------------|---------------|
 A|----------------|---------------|
 E|----------------|---------------|

Duration Legend
W ?? whole = 4
H - half = 2
Q ?? quarter = 1
E - 8th = 1/2
S - 16th = 1/4
Tablature Legend
x - Left-hand muting

Important: The song above is NOT stored on the Chordie server. The original song is hosted at www.azchords.com. Chordie works as a search engine and provides on-the-fly formatting. Chordie does not index songs against artists'/composers' will. To remove this song please click here.

Text color:
Chord color:
Chord grids: 
Font size:    
Page size: 

E
Rate #1 of 2 versions

Login - add to songbook

SHARE PAGE  




You need to log in to post comments