Guitar Tabs, Chords and Lyrics
Server problems seems to be fixed. Chordie has been experiencing problems with songs disappearing. These issues now seems to be fixed, but still verifying the fix. If you find anything strange, please email admin@chordie.com.


Full Color   P.O.D.

 
 e------------------------------------------------------------------|
 a------------------------------------------------------------------|
 g------------------------------------------------------------------|
 d--------10-12--------8-10----5-7-3-5-2-3-2------------------------|
 A-------------12~---------8~~---------------3---------------3-5----|
 D-0--(0)----------(0)-------------------------------3-2-3-5------0-|

 


 


 Chorus:w/dist.Play 9 times then move to Interlude


 

 
 e-------------------------------------------------------------------------------------|
 a-------------------------------------------------------------------------------------|
 g-------------------------------------------------------------------------------------|
 d(0)(0)(0)(0)(0)---3-3-------3<--------(0)(0)(0)(0)(0)---3-3--(3)(3)(3)-(0)--(6)--(3)-|
 A(0)(0)(0)(0)(0)------------3<---------(0)(0)(0)(0)(0)--------(3)(3)(3)-(0)--(6)--(3)-|
 D(0)(0)(0)(0)(0)------2-3-5------------(0)(0)(0)(0)(0)--------(3)(3)(3)-(0)--(6)--(3)-|

 


 


 Interlude:w/dist.Then move to Mexican guitar solo


 

 
 e-------------------------------------------------------------------------------------|
 a-------------------------------------------------------------------------------------|
 g-------------------------------------------------------------------------------------|
 d--8-7-x-x-2---3-(2)-(2)--(2)-3-(2)-(2)--(2)-3<--2<-----------------------------------|
 A--8-7-x-x-2---1-(2)-(2)--(2)-1-(2)-(2)--(2)-1<--0<-----------------------------------|
 D--8-7-x-x-2-----(2)-(2)--(2)---(2)-(2)--(2)------------------------------------------|

 


 


 Mexican Guitar solo:clean mexican acoustic


 

 
 e11-11-10-------11-13-13-13-11---------------------------------------------------------|
 a----------13-15--------------15-13--13-13-13------------------------------------------|
 g--------------------------------------------15-15-15-14-14-14-12-12-14--15-14-12------|
 d---------------------------------------------------------------------------------15---|
 A--------------------------------------------------------------------------------------|
 D--------------------------------------------------------------------------------------|

 


 


 [-----]  


 [-----]  


 [-----]  


 [14-12]  


 [-----]  


 [-----]  


 (Back to playing verses 4 times)


 (chorus 5 times)


 


 Heavy part towards end ,part 1:W/dist.Play 4 times then move to 2nd part.


 

 
 e------------------|
 a------------------|
 g----------------7-|
 d-0-(0)-0-(0)-0--x-|
 A-0-(0)-0-(0)-0--5-|
 D-0-(0)-0-(0)-0----|

 


 


 Heavy part towards end ,part 2:W/dist.Play 4 times then play part 1 7 times then move


 


 

 
 e-----------------------------------------------------| to part 3.
 a-----------------------------------------------------|
 g------------------7----10---------------------5----7-|
 d-(0)--(0)(0)--(0)-x----x-----(0)--(0)(0)--(0)-x----x-|
 A-(0)--(0)(0)--(0)-5----8-----(0)--(0)(0)--(0)-3----5-|
 D-(0)--(0)(0)--(0)------------(0)--(0)(0)--(0)--------|

 


 


 Heavy part towards end ,part 3:W/dist.Play once and then to 4.


 

 
 e------------------------------|
 a------------------------------|
 g------------------------------|
 d-(0)--(0)(0)--(0)(0)--(2)-(3)-|
 A-(0)--(0)(0)--(0)(0)--(2)-(3)-|
 D-(0)--(0)(0)--(0)(0)--(2)-(3)-| Oh God!

 


 


 Heavy part towards end ,part 4:W/dist.Play 8 times then go to 5.


 


 

 
 e------------------------------|
 a------------------------------|
 g------------------------------|
 d-0-(0)(0)-3-0-5^-0-5------[4]-|
 A-0-(0)(0)-3-0-5^-0-5----[5]---|
 D-0-(0)(0)-3-0-5^-0-5--[5]-----|

 


 


 Heavy part towards end ,part 5:W/dist.Play twice then play part 4, 8 more times. Then


 play the interlude


 

 
 e-------------------------------------------------------------------| and then the verses
 a----------------3<-------------------------------------------------| 4 more times. After
 g-----7<-----------------7<-----------------------------------------| that, play the first
 d-0<------(3)0<------0<------(3)2-x2-x2-x2-x2-----------------------| 3 notes of the
 A-0<------(3)0<------0<------(3)2-x2-x2-x2-x2-----------------------| interlude for the
 D-0<------(3)0<------0<------(3)2-x2-x2-x2-x2-----------------------| grand finalie!


Important: The song above is NOT stored on the Chordie server. The original song is hosted at www.azchords.com. Chordie works as a search engine and provides on-the-fly formatting. Chordie does not index songs against artists'/composers' will. To remove this song please click here.

This song is displayed as text-only. Transposing and tuning is only available for chordpro-songs.
Rate #1 of 1 versions

Jango Player

Login - add to songbook

SHARE PAGE  




You need to log in to post comments