Guitar Tabs, Chords and Lyrics
Server problems seems to be fixed. Chordie has been experiencing problems with songs disappearing. These issues now seems to be fixed, but still verifying the fix. If you find anything strange, please email admin@chordie.com.


Waiting Around for Grace  Pond

Don't you think I want it too, baby, when I looked at you
 
 e|--5-----------------------------5---5--7---7-7s9--9--7-----------------------|
 B|--5----5---7----7--7s9--9--7----7--------------------------------------------|
 G|--6-----------------------------7--------------------------------------------|
 D|--7-----------------------------7--------------------------------------------|
 A|--7-----------------------------5--------------------------------------------|
 E|--5-----------------------------5--------------------------------------------|

You'll miss the golden moment when everything aligned
 
 e|--10----10---10--9--9---7--7--------7----------------------------------------|
 B|--------7----------------------10---9--9--9---7--9---------------------------|
 G|--------7---------------------------9----------------------------------------|
 D|--------9---------------------------9----------------------------------------|
 A|--------9---------------------------7----------------------------------------|
 E|--------7---------------------------7----------------------------------------|

Did it go on underground without a soul around?
 
 e|--5------------------------5---5--7---7-7s9--9--7----------------------------|
 B|--5---5-7--7--7s9--9--7----7-------------------------------------------------|
 G|--6------------------------7-------------------------------------------------|
 D|--7------------------------7-------------------------------------------------|
 A|--7------------------------5-------------------------------------------------|
 E|--5------------------------5-------------------------------------------------|

Don't it make you wonder how God found the time?
 
 e|--10----10---9----9----7--7--------7-----------------------------------------|
 B|--7--------------------------10----9---9-----7---9---------------------------|
 G|--7--------------------------------9-----------------------------------------|
 D|--9--------------------------------9-----------------------------------------|
 A|--9--------------------------------7-----------------------------------------|
 E|--7--------------------------------7-----------------------------------------|
 e|-9----9-----7---7------7--9---7-----9----9-----9---9-----7---7-----7--9---7--|
 B|-10---10----9---7------7--9---7-----10---10----10--10----9---7-----7--9---7--|
 G|-11---11----9---8------8--9---8-----11---11----11--11----9---8-----8--9---8--|
 D|-11---11----9---9------9--11--9-----11---11----11--11----9---9-----9--11--9--|
 A|-9----9-----7---9------9--11--9-----9----9-----9---9-----7---9-----9--11--9--|
 E|-9----9-----7---7------7--9---7-----9----9-----9---9-----7---7-----7--9---7--|
 e|-----------------------------------------------------------------------------|
 B|-----------------------------------------------------------------------------|
 G|-----------------------------------------------------------------------------|
 D|-----------------------------------------------------------------------------|
 A|-9---9----9--9---------------------------9---9----9--9----7------2-----------|
 E|------------------12--11-----11-12-11----------------------------------------|

We're always [Dbm]waiting around [B]for [F#]grace
To put a [Dbm]smile upon [B]her [F#]race
Well, I'm [Dbm]sure she's got a [B]pretty [F#]face than the [B]world
Fill:
Well it's a real big
 
 e|-----------------2---3-------------------------------------------------------|
 B|----4----4----4--------------------------------------------------------------|
 G|-----------------------------------------------------------------------------|
 D|-----------------------------------------------------------------------------|
 A|-----------------------------------------------------------------------------|
 E|-----------------------------------------------------------------------------|

Well, it's a real big [Abm]place, your hands [F#]on [Db]mine
You know it [Abm]happens honey all [F#]the [Db]time
Well, my [Abm]hands [F#]going [Db]wild, well it [Abm]wouldn't be wrong [F#]even [Db]if I tried
Fill:
 
 e|-----------------------------------------------------------------------------|
 B|-----------------------------------------------------------------------------|
 G|-----------------------------------------------------------------------------|
 D|-----5-7-5-------------------------------------------------------------------|
 A|--5h7------7-----------------------------------------------------------------|
 E|-----------------------------------------------------------------------------|

T[Ebm]ired of these[Db] goo[Ab]dbyes, [Ebm]tired of all these [Db]weeping[Ab] eyes,
T[Ebm]ired of being tired [Db]of t[Ab]he process of being [Db]tired, of you being tired of me
Fill:
of me I'm
 
 e|-----------------------------------------------------------------------------|
 B|-----------------------------------------------------------------------------|
 G|---6----8----9---------------------------------------------------------------|
 D|-----------------------------------------------------------------------------|
 A|-----------------------------------------------------------------------------|
 E|-----------------------------------------------------------------------------|

tired, tired, tired, tired
 
 e|--9--7---9--7---9--7---9--7--------------------------------------------------|
 B|--10-7---10-7---10-7---10-7--------------------------------------------------|
 G|--11-8---11-8---11-8---11-8--------------------------------------------------|
 D|--11-9---11-9---11-9---11-9--------------------------------------------------|
 A|--9--9---9--9---9--9---9--9--------------------------------------------------|
 E|--9--7---9--7---9--7---9--7--------------------------------------------------|

We're always [Dbm]waiting around [B]for [F#]grace
To put a [Dbm]smile upon [B]their [F#]race
Well, I'm [Dbm]sure she's got a [B]pretty [F#]face than the [B]world
Well, it's a real big place
 
 e|-----------2----3---4----4-4---2--1----2-1-----------2-1--h2p1h2p1h2p1-------|
 B|----4--------------------------------------2-4---4-4-------------------------|
 G|-----------------------------------------------------------------------------|
 D|-----------------------------------------------------------------------------|
 A|-----------------------------------------------------------------------------|
 E|-----------------------------------------------------------------------------|
 e|-4--4---4--4s6s1---2-1-------------------------------------------------------|
 B|-----------------------2-4---4---4-4---7-6-h7p6h7p6h7p6----------------------|
 G|-----------------------------------------------------------------------------|
 D|-----------------------------------------------------------------------------|
 A|-----------------------------------------------------------------------------|
 E|-----------------------------------------------------------------------------|
 e|-----------------------------------------------------------------------------|
 B|-7---7---7-7--6-4----6-4-2-4---4---4-4---7-6-h7p6h7p6hp7p6-------------------|
 G|-----------------------------------------------------------------------------|
 D|-----------------------------------------------------------------------------|
 A|-----------------------------------------------------------------------------|
 E|-----------------------------------------------------------------------------|
 e|-----------------------------------------------------------------------------|
 B|-7---7---7-7s9s6-4---4---6-4-------------------------------------------------|
 G|------------------------------6-----------------6--8--9--10--11--------------|
 D|-----------------------------------------------------------------------------|
 A|-----------------------------------------------------------------------------|
 E|-----------------------------------------------------------------------------|
 e|------9-----7---7------7--9---7-----9----9-----9---9-----7---7-----7--9---7--|
 B|------10----9---7------7--9---7-----10---10----10--10----9---7-----7--9---7--|
 G|------11----9---8------8--9---8-----11---11----11--11----9---8-----8--9---8--|
 D|------11----9---9------9--11--9-----11---11----11--11----9---9-----9--11--9--|
 A|------9-----7---9------9--11--9-----9----9-----9---9-----7---9-----9--11--9--|
 E|------9-----7---7------7--9---7-----9----9-----9---9-----7---7-----7--9---7--|
 e|-----------------------------------------------------------------------------|
 B|-----------------------------------------------------------------------------|
 G|---11-----------13--------------11-----------9----8--------------------------|
 D|-----------------------------------------------------------------------------|
 A|-----------------------------------------------------------------------------|
 E|-----------------------------------------------------------------------------|
 e|--4--5--7--------7--5--7-----------4--5--7----------4--5--7------------------|
 B|--4--5--7--------5--5--7-----------4--5--7----------4--5--7------------------|
 G|--4--6--8--------4--6--8-----------4--6--8----------4--6--8------------------|
 D|--6--7--9--------6--7--9-----------6--7--9----------6--7--9------------------|
 A|--6--7--9--------6--7--9-----------6--7--9----------6--7--9------------------|
 E|--4--5--7--------4--5--7-----------4--5--7----------4--5--7------------------|

We're always [Abm]waiting [A]around for [B]grace
To put a [Abm]smile upon [A]our [B]race
Well, I'm [Abm]sure she's got a [A]pretty [B]face in the [Abm]worl[A]d[B]
In the[Abm] wor[G]ld[E], in the[Abm] wor[G]ld[E], in the[Abm] wor[G]ld[E]
We're always [Abm]waiting [A]around for [B]grace, oh
 
 e|-5-------5-4-2-----------------2-4-5-----9-----11-----14-----------17--------|
 B|---------------5-4---2h4---4-5-----------------------------------------------|
 G|-----------------------------------------------------------------------------|
 D|-----------------------------------------------------------------------------|
 A|-----------------------------------------------------------------------------|
 E|-----------------------------------------------------------------------------|
 e|--17-16-14-----------------------14-16-17-----21------23-------19--21--------|
 B|-----------17-16---14h16---16-17---------------------------------------------|
 G|-----------------------------------------------------------------------------|
 D|-----------------------------------------------------------------------------|
 A|-----------------------------------------------------------------------------|
 E|-----------------------------------------------------------------------------|
 e|-12s14-17-14-12s14-17-14-12s14-17-14-17-16-14--------------------------------|
 B|----------------------------------------------17-16---14h16p14h16p14h16------|
 G|-----------------------------------------------------------------------------|
 D|-----------------------------------------------------------------------------|
 A|-----------------------------------------------------------------------------|
 E|-----------------------------------------------------------------------------|
 e|-------14-16-17-----17-19-16-------------------------------------------------|
 B|-16-17-----------------------17-16-------------------------------------------|
 G|-----------------------------------------------------------------------------|
 D|-----------------------------------------------------------------------------|
 A|-----------------------------------------------------------------------------|
 E|-----------------------------------------------------------------------------|


Important: The song above is NOT stored on the Chordie server. The original song is hosted at www.azchords.com. Chordie works as a search engine and provides on-the-fly formatting. Chordie does not index songs against artists'/composers' will. To remove this song please click here.

Text color:
Chord color:
Chord grids: 
Font size:    
Page size: 

A Ab Abm B Db Dbm E Ebm F# G
Rate #1 of 1 versions

Login - add to songbook

SHARE PAGE  



You need to log in to post comments