Guitar Tabs, Chords and Lyrics
Server problems seems to be fixed. Chordie has been experiencing problems with songs disappearing. These issues now seems to be fixed, but still verifying the fix. If you find anything strange, please email admin@chordie.com.


Zond  Pond

[0:02 - 0:50] "I need the ground when I shake my brain ... where we started this song, a song about Zond."
[1:14 - 2:05] "Something about Julie or Judy ... All really really is Zond, a song about Zond"
x4 x4
 
 E|---------------| |------------------|
 B|---------------| |------------------|
 G|---------------| |------------------|
 D|---------------| |------------------|
 A|-----------5---| |-------------4----|
 E|-0----0--5-----| |--0----0--5-------|

RIFF B [CBORUS]
 
 ---------------

This part does not have a guitar, but you can play the following chords to go with it.
[0:50 - 1:14] 
[2:05 - 2:30] 
[C]Cross my[Bm] heart, u[Am]niverse, go [C]black [G]on [A]me
After all I've see[C]n, in a waking dre[A#]am
I'[Am]m from the darkness in between
RIFF C [OUTRO]
 
 --------------

This riff repeats till fade out during the outro.
[2:54 - 4:04] 
x2 x2
 
 E|----------------| |-----------------|
 B|----------------| |-----------------|
 G|----------------| |------------7----|
 D|---------9--10--| |---------9-------|
 A|----------------| |-----------------|
 E|-8----8---------| |-7----7----------|

x2
 
 E|----------------| |------------------------------|
 B|----------------| |------------------------------|
 G|------------5---| |------------5---------------7-|
 D|---------7------| |---------7---------------9----|
 A|----------------| |-----------------7----7-------|
 E|-5----5---------| |-8----8-----------------------|

x2 x2
 
 E|----------------| |-----------------|
 B|----------------| |-----------------|
 G|----------------| |-----------------|
 D|-------------11-| |---------9--10---|
 A|---------12-----| |-----------------|
 E|-9----9---------| |-8----8----------|

x2 x2
 
 E|----------------| |-----------------|
 B|----------------| |-----------------|
 G|------------7---| |------------5----|
 D|---------8------| |---------7-------|
 A|----------------| |-----------------|
 E|-6----6---------| |-5----5----------|


Important: The song above is NOT stored on the Chordie server. The original song is hosted at www.azchords.com. Chordie works as a search engine and provides on-the-fly formatting. Chordie does not index songs against artists'/composers' will. To remove this song please click here.

Text color:
Chord color:
Chord grids: 
Font size:    
Page size: 

A A# Am Bm C G
Rate #1 of 1 versions

Jango Player

Login - add to songbook

SHARE PAGE  




You need to log in to post comments