Guitar Tabs, Chords and Lyrics
Server problems seems to be fixed. Chordie has been experiencing problems with songs disappearing. These issues now seems to be fixed, but still verifying the fix. If you find anything strange, please email admin@chordie.com.


Already Gone  Powderfinger

Of "Internationalist"
Verse; (Let Open Strings Ring)
 
 e-|---0------0-----|
 B-|---0------5-----|
 G-|---1------6-----|
 D-|---2------7-----|
 A-|---2------7-----|
 E-|---0------x-----|

You Can Hear The Changes...
Prechorus; (And You Carn't Relax...)
 
 e-|---x--x--0--2---|
 B-|---5--4--2--2---|
 G-|---5--4--2--2---|
 D-|---5--4--2--4---|
 A-|---3--2--0--4---|
 E-|---x--x--x--x---|

Second Time Through You Hear Picked Notes of the chords,
If you know them or have a slight idea e-mail me
Chorus(Promises Already Gone...)
 
 e-|---x-x-x-x---x-x-x-x--x-x-x-x-x-x-x-x-x-x-x-x-x-x-x-x-x-x-x-x-x--|
 B-|---5-5-5-5---7-7-7-7--5-5-5-5-5-5-5-5-7-7-7-7-7-7-7-7-x-x-x-x-x--|
 G-|---6-6-6-6---8-8-8-8--6-6-6-6-6-6-6-6-8-8-8-8-8-8-8-8-9-9-9-9-9--|
 D-|---7-7-7-7---9-9-9-9--7-7-7-7-7-7-7-7-9-9-9-9-9-9-9-9-9-9-9-9-9--|
 A-|---7-7-7-7---9-9-9-9--7-7-7-7-7-7-7-7-9-9-9-9-9-9-9-9-7-7-7-7-7--|
 E-|---5-5-5-5---7-7-7-7--5-5-5-5-5-5-5-5-7-7-7-7-7-7-7-7-x-x-x-x-x--|

^repeat
 
 e-|--x-x-x-x-x-x-x-x-x-x-x-|
 B-|--x-x-x-x-7-7-7-7-7-7-7-|
 G-|--9-9-9-9-8-8-8-8-8-8-8-|
 D-|--9-9-9-9-9-9-9-9-9-9-9-|
 A-|--7-7-7-7-9-9-9-9-9-9-9-|
 E-|--x-x-x-x-7-7-7-7-7-7-7-|

^second time only play to here
and go straigh into the solo.
Solo;
well its pretty easy, (play the chords under it)
[C#] [B] [C#] [B] [C#] [B] [E]  
 
 e-|------------------------------|--------------------------|
 B-|-2~---4~---5~---7~---9~---10~-|-9-9-9-9-9-9---7-5--------|
 G-|------------------------------|--------------------------|
 D-|------------------------------|--------------------------|
 A-|------------------------------|--------------------------|
 E-|------------------------------|--------------------------|

[A] [E] [A]  
 
 e-|-9--9--9--9--9-------------------------9b--9b--9b~-------|
 B-|----------------9-9-9-9-9-9--7-5-------------------------|
 G-|---------------------------------------------------------|
 D-|---------------------------------------------------------|
 A-|---------------------------------------------------------|
 E-|---------------------------------------------------------|

C#= A=
-x- -0-
[-6-] [-2-]  
[-6-] [-2-]  
[-4-]-x- [-2-]-0-
-x- -x-
B= E=
-x- -0-
-4- -0-
[-4-] [-1-]  
[-4-] [-2-]  
[-2-]-x- [-2-]-0-

Important: The song above is NOT stored on the Chordie server. The original song is hosted at www.azchords.com. Chordie works as a search engine and provides on-the-fly formatting. Chordie does not index songs against artists'/composers' will. To remove this song please click here.

Text color:
Chord color:
Chord grids: 
Font size:    
Page size: 

A B C# E
Rate #1 of 4 versions

Jango Player

Login - add to songbook

SHARE PAGE  




You need to log in to post comments