Guitar Tabs, Chords and Lyrics
Update 25:10. 13:00. Site is back up running again. Songbooks are recovered. Woring on getting search back up..


Closure  Prime Circle

Tuning: Drop D
Chords:
[D] [G] [C] [A#]  
 
 e|-----------------------|
 b|-----------------------|
 g|-------------5---------|
 d|---0----5----5----8----|
 a|---0----5----3----8----|
 D|---0----5---------8----|

Intro part1: Guitar 1 & 2 (Guitar 1 d-e strings)(Guitar 2 D-d strings)
(x-mute strings)
 
 e|-----------------------------------------------------------------|
 b|---3-1-3-1-3---3-1-3-1-3-----------3-1-3-1-3---3-1-3-1-3---------|
 g|-----------------------------------------------------------------|
 d|-0-----------0---------0-0-0--0--0-----------0---------0-0-0--0x-|
 a|-----------------------0-0-0--0------------------------0-0-0--0x-|
 D|-----------------------0-0-0--0------------------------0-0-0--0x-|
 e|----------------------------------------------------------------|
 b|---3-1-3-1-3---3-1-3-1-3-----------3-1-3-1-3---3-1-3-1-3--------|
 g|----------------------------------------------------------------|
 d|-0-----------0---------0-0-0--0--0-----------0------------------|
 a|-----------------------0-0-0--0---------------------------------|
 D|-----------------------0-0-0--0---------------------------------|

Intro part2: Guitar 1:
 
 e|-----------------------------------------------------------------------|
 b|-----------------------------------------------------------------------|
 g|-----------------------------------------------------------------------|
 d|-----3--------5------3------------------3--------5------3--------------|
 a|-3-5--5-3-5--5---3-5--5-3-5--5-3----3-5--5-3-5--5---3-5--5-3-5--5-3--5-|
 D|-----------------------------------------------------------------------|

Guitar 2:
 
 e|------------------------------------------------------------------------|
 b|------------------------------------------------------------------------|
 g|-------------------------------5----------------------------------5-----|
 d|-0------------5--0-------------5----0------------5----------------5--0--|
 a|-0------------5--0-------------3----0------------5----------------3--0--|
 D|-0------------5--0------------------0------------5-------------------0--|

Verse 1:
[D] Could you please answer me, put me out of my miser[G]y now
Because [C]things are not the same anymore[D]
Let me know what you feel
Let it show is it [G]real now, cos [C]all is so unsure
Chorus:
[D] I dont know, I dont care at [A#]all.
Just give me closure[C], before I loose con[D]trol.
I dont know, I dont care at [A#]all,
Oh Im down on my [C]knees just for the last time
 
 e|--------------------------------------------------|
 b|--------------------------------------------------|
 g|--------------------------------------------------|
 d|--------------------------------------------------|
 a|----------------3-3-3-3-----------------1-1-1-1---|
 D|-0--0-0-5-5-3-3----------0--0-0-5-5-3-3---------0-|

Verse 2:
[D] Cut the chord cut the thread, get you out of my [G]head, now
Oh [C]I cant take these dreams anymore[D].
[D] Seems we're different people now
Leaving words un[G]spoken, left [C]broken on the floor.
Chorus:
[D] I dont know, I dont care at [A#]all.
Just give me closure[C], before I loose con[D]trol.
I dont know, I dont care at [A#]all,
Oh Im down on my [C]knees just for the last time
 
 e|--------------------------------------------------|
 b|--------------------------------------------------|
 g|--------------------------------------------------|
 d|--------------------------------------------------|
 a|----------------3-3-3-3-----------------1-1-1-1---|
 D|-0--0-0-5-5-3-3----------0--0-0-5-5-3-3---------0-| x2

Bridge:
[D] Seems like these walls are closing in
Seems these crossroads are winding
Hard just to tell you what I feel, cant seem to find the timing
[D] Seems like these walls are closing in[A#]
[A#] Seems these crossroads are winding
[G] Hard just to tell you [F]what I [A#]feel, cant seem to [C]lie
Chorus:
[D] I dont know, I dont care at [A#]all.
Just give me closure[C], before I loose con[D]trol.
I dont know, I dont care at [A#]all,
Oh Im down on my [C]knees just for the last time
 
 e|-------------------------------------------------|
 b|-------------------------------------------------|
 g|-------------------------------------------------|
 d|-------------------------------------------------|
 a|----------------3-3-3-3-----------------1-1-1-1--|
 D|-0--0-0-5-5-3-3----------0--0-0-5-5-3-3----------|
 e|----------------------------------------------------|
 b|----------------------------------------------------|
 g|----------------------------------------------------|
 d|----------------------------------------------------|
 a|----------------3-3-3-3-----------------1-1-1-1-----|
 D|-0--0-0-5-5-3-3----------0--0-0-5-5-3-3---------0-0-|

[End]  
Feel free to comment
dman922 out...

Important: The song above is NOT stored on the Chordie server. The original song is hosted at www.azchords.com. Chordie works as a search engine and provides on-the-fly formatting. Chordie does not index songs against artists'/composers' will. To remove this song please click here.

Text color:
Chord color:
Chord grids: 
Font size:    
Page size: 

A# C D F G
Rate #3 of 3 versions

Jango Player

Login - add to songbook

SHARE PAGE  



You need to log in to post comments