Guitar Tabs, Chords and Lyrics
Update 25:10. 13:00. Site is back up running again. Songbooks are recovered. Woring on getting search back up..


Shed My Skin  Prime Circle

Shed my Skin TAB by Prime Circle
I was searching all over the net for a tab for this great song, but found nothing, so I
tried my hand at figuring it out
Here is goes
This is the opening rif and the rif for rest of the song
 
 G|--------------------------------------------------------------------|
 U|--------------------------------------------------------------------|
 I|------0-------0-------0-------0-------0------0----------------------|
 T|----0-------0---0---0-------0---0---0------0---0--------------------|
 A|--2-----3---------2-----3---------2-----3---------------------------|
 R|--------------------------------------------------------------------|

This is the verse part:
[G] [D] [C] [D]  
 
 G|--------------------------------------------------------------------|
 U|--------------------------------------------------------------------|
 I|----------------7-7----------5-5----------7-7-----------------------|
 T|---5-5----------7-7----------5-5----------7-7-----------------------|
 A|---5-5----------5-5----------3-3----------5-5-----------------------|
 R|---3-3--------------------------------------------------------------|

[G] [D] [C] [D]  
 
 G|--------------------------------------------------------------------|
 U|--------------------------------------------------------------------|
 I|----------------7-7----------5-5----------7-7---7---7--77-----------|
 T|---5-5----------7-7----------5-5----------7-7---7---7--77-----------|
 A|---5-5----------5-5----------3-3----------5-5---5---5--55-----------|
 R|---3-3--------------------------------------------------------------|

[G] There's a new instin[D]ct inside my head toda[C]y
An' it's telling' me [D]that I shouldn't make my subway
[G] For all the wo[D]rld around me to go awa[C]y
Cause[D] I'm hating what I'm seeing
[G] Caught up in a dream[D]
Caught up in a s[C]cheme
Caught up by[D] the way I'm feeling
[G] Now wonder the [D]truth
Is not made out of p[C]roof
The[D]re's always other meanings
First It's the Riff and then the rest
Now everything in life seems fabricated
And everything I see, has a story to tell
I wish I knew more about this life
So I can have a story as well
Interlude - At this part BAR chords must be used. Otherwise, it's exactly the same
It feels like the first time
And I can always shed my skin
I'll come back to save face
Don't you know its my face
This is a tribute to a great South-African Band. I wish I could do a better job. If

Important: The song above is NOT stored on the Chordie server. The original song is hosted at www.azchords.com. Chordie works as a search engine and provides on-the-fly formatting. Chordie does not index songs against artists'/composers' will. To remove this song please click here.

Text color:
Chord color:
Chord grids: 
Font size:    
Page size: 

C D G
Rate #2 of 2 versions

Jango Player

Login - add to songbook

SHARE PAGE  



You need to log in to post comments