Guitar Tabs, Chords and Lyrics
Update 25:10. 13:00. Site is back up running again. Songbooks are recovered. Woring on getting search back up..


Fine on the Outside  Priscilla Ahn

Intro:
[D]  
 
 E|--------2-----------2-----------2-----------2-----|--------2-----------2-----------2-----------2-----|
 B|-----------3-----------3-----------3-----------3--|-----------3-----------3-----------3-----------3--|
 G|-----2-----------2-----------2-----------2--------|-----2-----------2-----------2-----------2--------|
 D|--0-----------0-----------0-----------0-----------|--0-----------0-----------0-----------0-----------|
 A|--------------------------------------------------|--------------------------------------------------|
 E|--------------------------------------------------|--------------------------------------------------|

Verse 1:
[D] [Bm] 
 
 E|--------2-----------2-----------2-----------2-----|--------2-----------2-----------2-----------2-----|
 B|-----------3-----------3-----------3-----------3--|-----------3-----------3-----------3-----------3--|
 G|-----2-----------2-----------2-----------2--------|-----4-----------4-----------4-----------4--------|
 D|--0-----------0-----------0-----------0-----------|--4-----------4-----------4-----------4-----------|
 A|--------------------------------------------------|--------------------------------------------------|
 E|--------------------------------------------------|--------------------------------------------------|

[Gadd9] [D] [Dadd9/C#] 
 
 E|--------5-----------5-----------5-----------5-----|--------2-----------2-----------0-----------0-----|
 B|-----------3-----------3-----------3-----------3--|-----------3-----------3-----------3-----------3--|
 G|-----4-----------4-----------4-----------4--------|-----2-----------2-----------2-----------2--------|
 D|--5-----------5-----------5-----------5-----------|--0-----------0-----------------------------------|
 A|--------------------------------------------------|--------------------------4-----------4-----------|
 E|--------------------------------------------------|--------------------------------------------------|

[Dadd9/C] [B7] [Dadd4/E] [Dadd9/F#] [Dadd9/G] 
 
 E|--------0-----------0-----------2-----------2-----|--------2-----------0-----------0-----------0-----|
 B|-----------3-----------3-----------0-----------0--|-----------3-----------3-----------3-----------3--|
 G|-----2-----------2--------------------------------|-----0-----------0-----------0-----------0--------|
 D|-----------------------------1-----------1--------|--------------------------------------------------|
 A|--3-----------3-----------2-----------2-----------|--------------------------------------------------|
 E|--------------------------------------------------|--0-----------2-----------3-----------3-----------|

[D]  
 
 E|--------2-----------2-----------2-----------2-----|
 B|-----------3-----------3-----------3-----------3--|
 G|-----2-----------2-----------2-----------2--------|
 D|--0-----------0-----------0-----------0-----------|
 A|--------------------------------------------------|
 E|--------------------------------------------------|

Verse 2:
[D] [Bm] 
 
 E|--------2-----------2-----------2-----------2-----|--------2-----------2-----------2-----------2-----|
 B|-----------3-----------3-----------3-----------3--|-----------3-----------3-----------3-----------3--|
 G|-----2-----------2-----------2-----------2--------|-----4-----------4-----------4-----------4--------|
 D|--0-----------0-----------0-----------0-----------|--4-----------4-----------4-----------4-----------|
 A|--------------------------------------------------|--------------------------------------------------|
 E|--------------------------------------------------|--------------------------------------------------|

[Gadd9] [D] [Dadd9/C#] 
 
 E|--------5-----------5-----------5-----------5-----|--------2-----------2-----------0-----------0-----|
 B|-----------3-----------3-----------3-----------3--|-----------3-----------3-----------3-----------3--|
 G|-----4-----------4-----------4-----------4--------|-----2-----------2-----------2-----------2--------|
 D|--5-----------5-----------5-----------5-----------|--0-----------0-----------------------------------|
 A|--------------------------------------------------|--------------------------4-----------4-----------|
 E|--------------------------------------------------|--------------------------------------------------|

[Dadd9/C] [B7] [Dadd4/E] [Dadd9/F#] [Dadd9/G] 
 
 E|--------0-----------0-----------2-----------2-----|--------2-----------0-----------5-----5-----5-----|
 B|-----------3-----------3-----------0-----------0--|-----------3-----------3-----------3--3--------3--|
 G|-----2-----------2--------------------------------|-----0-----------0-----------0--------0--0--------|
 D|-----------------------------1-----------1--------|--------------------------------------0-----------|
 A|--3-----------3-----------2-----------2-----------|--------------------------------------0-----------|
 E|--------------------------------------------------|--0-----------2-----------3-----------3-----------|

[D]  
 
 E|--------2-----------2-----------2-----------2-----|
 B|-----------3-----------3-----------3-----------3--|
 G|--2--2--------2--2--------2--2--------2--2--------|
 D|--0-----------0-----------0-----------0-----------|
 A|--------------------------------------------------|
 E|--------------------------------------------------|

Chorus:
[D] [Dadd7] [Dadd6] [D] [D] 
 
 E|--------2-----------2-----------------------2-----------2-----|
 B|-----------3-----------2--------0--0-----------3-----------3--|
 G|--2--2--------2--2--------2--2--------2--2--------2--2--------|
 D|--0-----------0-----------0-----------0-----------0-----------|
 A|--------------------------------------------------------------|
 E|--------------------------------------------------------------|

[Dadd4/B] [Gadd9] [A7] 
 
 E|--------2-----------2-----------2-----------2-----|--------5-----------5-----------0-----------0-----|
 B|-----------3-----------3-----------3-----------3--|-----------3-----------3-----------2-----------2--|
 G|--------------------------------------------------|--4--4--------4--4--------0--0--------0--0--------|
 D|--0--0--------0--0--------0--0--------0--0--------|--5-----------5-----------2-----------2-----------|
 A|--2-----------2-----------2-----------2-----------|--------------------------------------------------|
 E|--------------------------------------------------|--------------------------------------------------|

[D]  
 
 E|--------2-----------2-----------2-----------2--------|
 B|-----------3-----------3??----------3-----------3---|
 G|--2--2--------2--2--------2--2--------2--2-----------|
 D|--0-----------0-----------0-----------0--------------|
 A|-----------------------------------------------------|
 E|-----------------------------------------------------|

Verse 3:
[D] [Bm] 
 
 E|--------2-----------2-----------2-----------2-----|--------2-----------2-----------2-----------2-------|
 B|-----------3-----------3??----------3-----------3--|-----------3-----------3-----------3-----------3----|
 G|--2--2--------2--2--------2--2--------2--2--------|--4--4--------4--4--------4--4--------4--4----------|
 D|--0-----------0-----------0-----------0-----------|--4-----------4-----------4-----------4-------------|
 A|--------------------------------------------------|----------------------------------------------------|
 E|--------------------------------------------------|----------------------------------------------------|

[Gadd9] [D] [Dadd9/C#] 
 
 E|--------5-----------5-----------5-----------5-----|--------2-----------2-----------0-----------0-----|
 B|-----------3-----------3-----------3-----------3--|-----------3-----------3-----------3-----------3--|
 G|--4--4--------4--4--------4--4--------4--4--------|--2--2--------2--2--------2--2--------2--2--------|
 D|--5-----------5-----------5-----------5-----------|--0-----------0-----------0-----------0-----------|
 A|--------------------------------------------------|--------------------------4-----------4-----------|
 E|--------------------------------------------------|--------------------------------------------------|

[Dadd9/C] [B7] [Dadd4/E] [Dadd9/F#] [Dadd9/G] 
 
 E|--------0-----------0-----------2-----------2-----|--------2-----------0-----------5-----5-----5-----|
 B|-----------3-----------3-----------0-----------0--|-----------3-----------3-----------3--3--------3--|
 G|--2--2--------2--2--------------------------------|-----0-----------0-----------0--------0--0--------|
 D|--0-----------0-----------1--1--------1--1--------|--------------------------------------0-----------|
 A|--3-----------3-----------2-----------2-----------|--------------------------------------0-----------|
 E|--------------------------------------------------|--0-----------2-----------3-----------3-----------|

[D]  
 
 E|--------2-----------2-----------2-----------2-----|
 B|-----------3-----------3-----------3-----------3--|
 G|--2--2--------2--2--------2--2--------2--2--------|
 D|--0-----------0-----------0-----------0-----------|
 A|--------------------------------------------------|
 E|--------------------------------------------------|

Interlude:
[D] [A7] [D] [A7] 
 
 E|--------2-----------2-----------0-----------0-----|--------2-----------2-----------0-----------0-------|
 B|-----------3-----------3??----------2-----------2--|-----------3-----------3-----------2-----------2----|
 G|--2--2--------2--2--------0--0--------0--0--------|--2--2--------2--2--------0--0--------0--0----------|
 D|--0-----------0-----------2-----------2-----------|--0-----------0-----------2-----------2-------------|
 A|--------------------------------------------------|----------------------------------------------------|
 E|--------------------------------------------------|----------------------------------------------------|

[Em7] [Gadd9]  
 
 E|--------0-----------0-----------5-----------5-----|--------5-----|
 B|-----------3-----------3-----------3-----------3--|-----------3--|
 G|-----------------------------4-----------4--------|-----4--------|
 D|-----2-----------2--------5-----------5-----------|--5-----------|
 A|--2-----------2-----------------------------------|--------------|
 E|--------------------------------------------------|--------------|

Verse 4:
[D] [Bm] 
 
 E|--------2-----------2-----------2-----------2-----|--------2-----------2-----------2-----------2-------|
 B|-----------3-----------3??----------3-----------3--|-----------3-----------3-----------3-----------3----|
 G|--2--2--------2--2--------2--2--------2--2--------|--4--4--------4--4--------4--4--------4--4----------|
 D|--0-----------0-----------0-----------0-----------|--4-----------4-----------4-----------4-------------|
 A|--------------------------------------------------|----------------------------------------------------|
 E|--------------------------------------------------|----------------------------------------------------|

[Gadd9] [D] [Dadd9/C#] 
 
 E|--------5-----------5-----------5-----------5-----|--------2-----------2-----------0-----------0-----|
 B|-----------3-----------3-----------3-----------3--|-----------3-----------3-----------3-----------3--|
 G|--4--4--------4--4--------4--4--------4--4--------|--2--2--------2--2--------2--2--------2--2--------|
 D|--5-----------5-----------5-----------5-----------|--0-----------0-----------0-----------0-----------|
 A|--------------------------------------------------|--------------------------4-----------4-----------|
 E|--------------------------------------------------|--------------------------------------------------|

[Bm] [Asus4] [Em7] [Gadd9] 
 
 E|--------2-----------2-----------0-----------0-----|--------0-----------0-----------5-----------5-----|
 B|-----------3-----------3-----------3-----------3--|-----------3-----------3-----------3-----------3--|
 G|-----4-----------4-----------2-----------2--------|-----------------------------4-----------4--------|
 D|--4-----------4-----------2-----------2-----------|-----2-----------2--------5-----------5-----------|
 A|--------------------------------------------------|--2-----------2-----------------------------------|
 E|--------------------------------------------------|--------------------------------------------------|

Interlude:
[D] [A7] [D] [A7] 
 
 E|--------2-----------2-----------0-----------0-----|--------2-----------2-----------0-----------0-------|
 B|-----------3-----------3??----------2-----------2--|-----------3-----------3-----------2-----------2----|
 G|--2--2--------2--2--------0--0--------0--0--------|--2--2--------2--2--------0--0--------0--0----------|
 D|--0-----------0-----------2-----------2-----------|--0-----------0-----------2-----------2-------------|
 A|--------------------------------------------------|----------------------------------------------------|
 E|--------------------------------------------------|----------------------------------------------------|

[Em7] [Gadd9]  
 
 E|--------0-----------0-----------5-----------5-----|--------5-----|
 B|-----------3-----------3-----------3-----------3--|-----------3--|
 G|-----------------------------4-----------4--------|-----4--------|
 D|-----2-----------2--------5-----------5-----------|--5-----------|
 A|--2-----------2-----------------------------------|--------------|
 E|--------------------------------------------------|--------------|

Chorus:
[D] [Dadd7] [Dadd6] [D] [D] 
 
 E|--------2-----------2-----------------------2-----------2-----|
 B|-----------3-----------2--------0--0-----------3-----------3--|
 G|--2--2--------2--2--------2--2--------2--2--------2--2--------|
 D|--0-----------0-----------0-----------0-----------0-----------|
 A|--------------------------------------------------------------|
 E|--------------------------------------------------------------|

[Dadd4/B] [Gadd9] [A7] 
 
 E|--------2-----------2-----------2-----------2-----|--------5-----------5-----------0-----------0-----|
 B|-----------3-----------3-----------3-----------3--|-----------3-----------3-----------2-----------2--|
 G|--------------------------------------------------|-----4-----------4-----------0-----------0--------|
 D|--2--0--------2--0-----------0-----------0--------|--5-----------5-----------2-----------2-----------|
 A|--2-----------2-----------2-----------2-----------|--------------------------------------------------|
 E|--------------------------------------------------|--------------------------------------------------|

[D] end on D[Dadd9/C#] [Gadd9] [Gm6]
 
 E|--------2-----------2-----------0-----------0-----|--------5-----------5-----------0-----------0-----|
 B|-----------3-----------3-----------3-----------3--|-----------3-----------3-----------3-----------3--|
 G|-----2-----------2-----------2-----------2--------|-----4-----------4-----------3-----------3--------|
 D|--0-----------0-----------------------------------|--5-----------5-----------5-----------5-----------|
 A|--------------------------4-----------4-----------|--------------------------------------------------|
 E|--------------------------------------------------|--------------------------------------------------| 


Important: The song above is NOT stored on the Chordie server. The original song is hosted at www.azchords.com. Chordie works as a search engine and provides on-the-fly formatting. Chordie does not index songs against artists'/composers' will. To remove this song please click here.

Text color:
Chord color:
Chord grids: 
Font size:    
Page size: 

A7 Asus4 B7 Bm D Dadd6 Dadd7 Dadd9/C# Dadd9/F# Em7 Gadd9 Gm6
Rate #1 of 2 versions

Login - add to songbook

SHARE PAGE  




You need to log in to post comments