Guitar Tabs, Chords and Lyrics
Major upgrade!! After one year development the new version of Chordie is now online! Please give feedback.


Famous   Puddle of Mudd

 
 eb|------------------------------------------------------------------------|
 Bb|------------------------------------------------------------------------|
 Gb|-11-11--11--11---12--12---14\--9--9---9\--5--5---5/7--7/11-11--11--11---|
 Db|--0----0---0---0---0----0-----0--0--0---0--0---0------0-------0---0--0--|
 Ab|------------------------------------------------------------------------|
 Db|------------------------------------------------------------------------|
 eb|---------------------------------------------------|
 Bb|------------------------3------3---3---3---3---3---|
 Gb|-12--12â??14\--9---9--9---5b(6)-(6)-(6)-(6)-(6)-(6)--|
 Db|---0---0---0---0--0--0-----------------------------|
 Ab|---------------------------------------------------|
 Db|---------------------------------------------------|

 


 


 This is what the other guy plays in the intro.


 

 
 eb|------------------------------------------------------|
 Bb|------------------------------------------------------|
 Gb|-----2----2-------2--2-------2---2--------0---0-------|
 Db|---0---0----0---0---0--0---0---0---0----0---0---0-----| X 2
 Ab|-------------------------1----------------------------|
 Db|-0------------3-----------------------1---------------|

 


 


 Here is where the drums come in.


 

 
 eb|----------------------------------------------------------|
 Bb|----------------------------------------------------------|
 Gb|----------------------------------------------------------|
 Db|----0-0-0--3/6\5--3-3-3--5-5--0-0-0--3/6\5--3-3-3--6\5-3--| X 2
 Ab|----0-0-0--3/6\5--3-3-3--5-5--0-0-0--3/6\5--3-3-3--6\5-3--|
 Db|----0-0-0--3/6\5--3-3-3--5-5--0-0-0--3/6\5--3-3-3--6\5-3--|

 


 Yeaaaaaaahhhhhâ?¦...


 


 [ Verse ] 


 Play this palm muted.


 

 
 eb|------------------------------------------------|
 Bb|------------------------------------------------|
 Gb|------------------------------------------------|
 Db|----0-0-0-0-0-0--3/5-5-5-5-5-5/8-8-8-8-8-8------| X 2
 Ab|----0-0-0-0-0-0--3/5-5-5-5-5-5/8-8-8-8-8-8------|
 Db|----0-0-0-0-0-0--3/5-5-5-5-5-5/8-8-8-8-8-8------|

 


 Hollywoodâ?¦...


 


 [ Pre-Cborus ] 


 


 

 
 eb|--------------------------------------------------------|
 Bb|--------------------------------------------------------|
 Gb|---7-7-7/10--7-7-7/10---7-7-7/10â??---10\7/10-------------|
 Db|---x-x-x-x---x-x-x-x----x-x-x-x------x-x-x--------------|
 Ab|---5-5-5/8---5-5-5/8----5-5-5/8------8\5/8--------------|
 Db|--------------------------------------------------------|

 


 You want it��� everything cause�


 


 [ Cborus ] 


 


 

 
 eb|------------------------------------------------------|
 Bb|------------------------------------------------------|
 Gb|--------------3-3-3-3---------------------------------|
 Db|----0-0-0-0-0-3-3-3-3-3-3-3-3-3/6-6-6-6-6\5-3---------| X 2
 Ab|----0-0-0-0-0-1-1-1-1-3-3-3-3-3/6-6-6-6-6\5-3---------|
 Db|----0-0-0-0-0---------3-3-3-3-3/6-6-6-6-6\5-3---------|

 


 I wanna be...


 Play this before next verse.


 

 
 eb|----------------------------------------------------------------|
 Bb|----------------------------------------------------------------|
 Gb|----------------------------------------------------------------|
 Db|----0-0-0--3/6\5--3-3-3--5-5--0-0-0--3/6\5--3-3-3--6\5-3--------|
 Ab|----0-0-0--3/6\5--3-3-3--5-5--0-0-0--3/6\5--3-3-3--6\5-3--------|
 Db|----0-0-0--3/6\5--3-3-3--5-5--0-0-0--3/6\5--3-3-3--6\5-3--------|

 


 Freee......


 


 [ Verse ] 


 


 [ Pre Cborus ] 


 


 [ Cborus ] 


 


 Play this before bridge.


 

 
 eb|-------------------------------------------------------------|
 Bb|-------------------------------------------------------------|
 Gb|-------------------------------------------------------------|
 Db|----0-0-0--3/6\5--3-3-3--5-5--0-0-0--3/6\5--3-3-3--6\5-3-----|
 Ab|----0-0-0--3/6\5--3-3-3--5-5--0-0-0--3/6\5--3-3-3--6\5-3-----|
 Db|----0-0-0--3/6\5--3-3-3--5-5--0-0-0--3/6\5--3-3-3--6\5-3-----| 

 


 Freee.... Well I...


 


 [ Bridge ] 


 There is another guitar playing here but I didnâ??t tab that.


 

 
 eb|----------------------------------------------|
 Bb|----------------------------------------------|
 Gb|-3----5--------3----5---------3----5----6-----|
 Db|-3----5---0----3----5----5----3----5----6-----|
 Ab|-1----3---0----1----3----5----1----3----4-----|
 Db|----------0--------------5--------------------|

 


 hope that isâ?¦..


 


 [ Interlude ] 


 


 Here you can hear also 2 guitars. There is another guitar that plays


 

 
 a little piece of the intro and starts about here -------- and continues to 

 


 play during the pre-chorus.


 


 

 
 eb|----------------------------------------------------------------|
 Bb|----------------------------------------------------------------|
 Gb|-----2---2------2--2------2---2------0---0------2--2-----2--2---|
 Db|---0---0---0--0--0--0---0---0---0--0---0---0---0--0--0--0--0--0-|
 Ab|----------------------1-----------------------------------------|
 Db|-0-----------3--------------------1----------0---------3--------|

 


 Since it ...


 


 What the second guitar plays is this.


 

 
 eb|---------------------------------------------------------------------|
 Bb|-------------------------------------------3------3---3---3---3---3--|
 Gb|--11--11--11--11--12--12--14\---9---9--9---5b(6)-(6)-(6)-(6)-(6)-(6)-|
 Db|---0-----0---0---0---0---0----0---0--0---0---------------------------|
 Ab|---------------------------------------------------------------------|
 Db|---------------------------------------------------------------------|

 


 


 [ Pre-Cborus ] 


 


 [ Cborus ] X 2


 


 [ Ending ] 


 


 

 
 eb|----------------------------------------------------------------|
 Bb|----------------------------------------------------------------|
 Gb|----------------------------------------------------------------|
 Db|----0-0-0--3/6\5--3-3-3--5-5--0-0-0--3/6\5--3-3-3--6\5-3--------|
 Ab|----0-0-0--3/6\5--3-3-3--5-5--0-0-0--3/6\5--3-3-3--6\5-3--------|
 Db|----0-0-0--3/6\5--3-3-3--5-5--0-0-0--3/6\5--3-3-3--6\5-3--------|

 


 Yeaaaaaaahhhhhâ?¦..


 


 

 
 eb|---------------------------------------------------------------------|
 Bb|---------------------------------------------------------------------|
 Gb|---------------------------------------------------------------------|
 Db|----0-0-0--3/6\5--3-3-3--5-5--0-0-0--3/6\5--3-3-3--5h6-5-3-5-3----0--|
 Ab|----0-0-0--3/6\5--3-3-3--5-5--0-0-0--3/6\5--3-3-3--------------5--0--|
 Db|----0-0-0--3/6\5--3-3-3--5-5--0-0-0--3/6\5--3-3-3-----------------0--|


Important: The song above is NOT stored on the Chordie server. The original song is hosted at www.azchords.com. Chordie works as a search engine and provides on-the-fly formatting. Chordie does not index songs against artists'/composers' will. To remove this song please click here.

This song is displayed as text-only. Transposing and tuning is only available for chordpro-songs.
Rate #2 of 3 versions

Jango Player

Login - add to songbook

SHARE PAGE  




You need to log in to post comments