Guitar Tabs, Chords and Lyrics
Major upgrade!! After one year development the new version of Chordie is now online! Please give feedback.


Out of My Head   Puddle of Mudd

 
 e--------------------------------------------------------------------------------------------------------------------------------------------
 B------------------------------------------------------------------------------------------------------------------------------------------
 G-------------------------------------------------------------------------------------------------------------------------------------------
 D-------------------------------------------------------------------------------------------------------------------------------------------
 A-------------------------------------------------------------------------------------------------------------------------------------------
 E---8-8-8--0-0-[9]--0-0-0-[9]--0-0-0-[9]-0----------------------------------------------------------------------------------------

 


 


 Riff 2:


 

 
 e--------------------------------------------------------------------------------------------------------------------------------------------
 B-------------------------------------------------------------------------------------------------------------------------------------------
 G-------------------------------------------------------------------------------------------------------------------------------------------
 D-----------------------------------------10---10--10----8-8-8------------------------------------------------------------------------
 A-----------------------------------------10---10--10----8-8-8------------------------------------------------------------------------
 E---8-8-8--0-0-[9]--0-0-0-[9]--0---10--10--10----8-8-8-------------------------------------------------------------------------

 


 


 Riff 3:


 


 

 
 e--------------------------------------------------------------------------------------------------------------------------------------------
 B-------------------------------------------------------------------------------------------------------------------------------------------
 G-------------------------------------------------------------------------------------------------------------------------------------------
 D---8-8-8--0-0-------0-0-0------0-0-0------0----------------------------------------------------------------------------------------
 A---8-8-8--0-0-------0-0-0------0-0-0------0----------------------------------------------------------------------------------------
 E---8-8-8--0-0-[9]--0-0-0-[9]--0-0-0-[9]-0----------------------------------------------------------------------------------------


Important: The song above is NOT stored on the Chordie server. The original song is hosted at www.azchords.com. Chordie works as a search engine and provides on-the-fly formatting. Chordie does not index songs against artists'/composers' will. To remove this song please click here.

This song is displayed as text-only. Transposing and tuning is only available for chordpro-songs.
Rate #1 of 2 versions

Login - add to songbook

SHARE PAGE  



You need to log in to post comments