Guitar Tabs, Chords and Lyrics
Major upgrade!! After one year development the new version of Chordie is now online! Please give feedback.


Psycho  Puddle of Mudd

Puddle of Mudd - Psycho
Tuning: Standard [E] [A] [D] [G] [B] [E]
[Intro/Verse] X7
 
 E|-----------------------------------------------|
 B|----10---10-----10---11-----6----6------6----8-|
 G|----10---10-----10---11-----6----6------6----8-|
 D|-----------------------------------------------|
 A|-8-----8-----8-----9-----4-----4-----4-----6---|
 E|-----------------------------------------------|

[Pre-Cborus] 
 
 E|--------------------------------------------|
 B|-----3---3---3---5---6---6---6--------------|
 G|-----3---3---3---5---6---6---6--------------|
 D|--------------------------------13-13-13-13-|
 A|---1---1---1---3---4---4---4----13-13-13-13-|
 E|--------------------------------11-11-11-11-|

[Cborus] X2
[F] [C#] [D#]  
 
 E|--------------------------|
 B|--------------------------|
 G|-10-----------------------|
 D|-10-X15---11--------13----|
 A|-8--------11--X12---13-X2-|
 E|----------9---------11----|

[Intro/Verse] X4
[Cborus] 
[Cborus 2 - 2nd Balf] X3
[F] [A#] [G#]  
 
 E|------------------------|
 B|------------------------|
 G|-10-------15------13----|
 D|-10-X15---15-X8---13-X8-|
 A|-8--------13------11----|
 E|------------------------|

[Intro/Verse] X2
[Cborus] X4
[Cborus 3 - 2nd Balf] 
[E] [F] [G#] [E] [F] [C#]  
 
 E|----------------------------------------------------------------------------------------|
 B|----------------------------------------------------------------------------------------|
 G|-9-9-10-10-10--9-10-10-10--9-10-9-10-9--13---9-9-10-10-10--9-10-10-10--9-10-9-10-9--6---|
 D|-9-9-10-10-10--9-10-10-10--9-10-9-10-9--13---9-9-10-10-10--9-10-10-10--9-10-9-10-9--6---|
 A|-7-7-8--8--8---7-8--8--8---7-8--7-8--7--11---7-7-8--8--8---7-8--8--8---7-8--7-8--7--4---|
 E|----------------------------------------------------------------------------------------|


Important: The song above is NOT stored on the Chordie server. The original song is hosted at www.azchords.com. Chordie works as a search engine and provides on-the-fly formatting. Chordie does not index songs against artists'/composers' will. To remove this song please click here.

Text color:
Chord color:
Chord grids: 
Font size:    
Page size: 

A A# B C# D D# E F G G#
Rate #1 of 3 versions

Jango Player

Login - add to songbook

SHARE PAGE  




You need to log in to post comments