Guitar Tabs, Chords and Lyrics
Server problems seems to be fixed. Chordie has been experiencing problems with songs disappearing. These issues now seems to be fixed, but still verifying the fix. If you find anything strange, please email admin@chordie.com.


Nasaan Ka?  Pupil

"nasaan ka?"
kapa kapa by: Niko Monillas <moz>
Verse 1:
[D] [A] [Bm]  
 
 e|-----------------------|
 B|-----------------------|
 G|-----------------------|
 D|-----------------------|
 A|-----x-----x-----x-----|
 E|-----5-----7-----9-----|

[D]kaninang umaga na[Bm]gising ako
may ba[A]kas ng ngiti sa mukha
[D]kasama kita sa a[Bm]king panaginip
sasa[A]bihin ko dapat sa'yo pero
Chorus:
[D] [A] [Bm]  
 
 e|-----x-----x-----x------|
 B|-----x-----x-----x------|
 G|-----x-----x-----x------|
 D|-----7-----9-----11-----|
 A|-----7-----9-----11-----|
 E|-----5-----7-----9------|

wal[D]a ka n[Bm]a
wal[D]a ka n[Bm]a pala
wal[D]a ka n[Bm]a aah[A]h
Verse 2:
 
 e|------16-----11-----9-------| \
 B|----------------------------| \
 G|----------------------------| paulit ulit lng yan ...
 D|----------------------------| w/ echo ...
 A|----------------------------| /
 E|----------------------------| /

[D]nag-iisip, nam[Bm]imilipit sa ga[A]lit
um[D]iikot ang aki[Bm]ng paningin
sa [A]mga tanong na di kayang sagutin
di [D]na makikita di [Bm]na mahawakan
ang [A]maganda mong mukha pagkat
(repeat chorus)
[Gm-] [A]nasaan [D]ka,[Gm-] [A]nasaan [D]ka
Gm A D (PAUSE)
nawala nang parang bula
 
 e|-----------------------9-9--| \
 B|-----0-0---5-5---0-0--------| \
 G|----------------------------| paulit ulit
 D|----------------------------| lng toh ...
 A|----------------------------| /
 E|----------------------------| /

(repeat chorus) <-- drums and piano only ...
[D] mahah[Bm]anap din k[A]ita
[D] mahah[Bm]anap din k[A]ita
[D] mahah[Bm]anap din k[A]ita
(kung may langit nga ba)
[D] mahah[Bm]anap din k[A]ita
[D] mahah[Bm]anap din k[A]ita
[D] mahah[Bm]anap din k[A]ita aah[D]h...
* hindi ko alam itatawag sa mga chords na yan eh, kaya D, A, Bm na lng ... hehe.
* sa mga verses, yung E string lang ang tatamaan niyo ...
 
 --------------------------

Hi pala sa mga tropa ko <svcity> ... shukran sa lahat ...
txt me at +966502329819 ... peace.
 
 --------------------------


Important: The song above is NOT stored on the Chordie server. The original song is hosted at www.azchords.com. Chordie works as a search engine and provides on-the-fly formatting. Chordie does not index songs against artists'/composers' will. To remove this song please click here.

Text color:
Chord color:
Chord grids: 
Font size:    
Page size: 

A Bm D
Rate #1 of 7 versions

Jango Player

Login - add to songbook

SHARE PAGE  




You need to log in to post comments