Guitar Tabs, Chords and Lyrics
Major upgrade!! After one year development the new version of Chordie is now online! Please give feedback.


Abenteuerland  Pur

Intro
[Am] [C] [Em] [D]  
 
 e|-----------------|-----------------|-----------------|-----------------|
 B|-----------------|-----------------|-----------------|-----------------|
 G|-----4-----------|-----------------|-----------------|-----------------|
 D|/7-7---7---5~----|-----------5-----|-----------------|-9b10--r-7~------|
 A|-----------------|-3-3/5h7-----7~--|------------(7)\-|-----------------|
 E|-----------------|-----------------|-----------------|-----------------|

[Am] [C] [Em] [F]  
 
 e|-----------------|-----------------|-----------------|-----------------|
 B|-----------------|-----------------|-----------------|-----------------|
 G|-----4-----------|-----------------|-----------------|-7b8---7-5h7-5~--|
 D|/7-7---7---5~----|-----------5-----|-----------------|-----------------|
 A|-----------------|-3-3/5h7-----7~--|------------(7)\-|-----------------|
 E|-----------------|-----------------|-----------------|-----------------|

Vers 1
[Am]Der triste Him[C]mel macht mich k[Em]rank, ein sch[D]weres graues [Am]Tuch,
Das die S[C]inne fast erst[Em]ickt, die Gew[F]ohnheit zu B[Am]esuch.
Lange n[C]ichts mehr aufget[Em]ankt, die B[D]atterien sind l[Am]eer,
In ein L[C]abyrinth verstr[Em]ickt, ich s[F]eh' den Weg nicht
Pre-Chorus
[G] [Dm]  
 
 e|-----------------|-----------------|-1---0-----------|-----------------|
 B|-3---------------|-----------------|-3-------3-------|-----------------|
 G|-0---------------|-----------------|-2---------------|-----------------|
 D|-0---------------|-----------------|-0---------------|-----------------|
 A|-x---------------|-----------------|-----------------|-----------------|
 E|-3---------------|-----------------|-----------------|-----------------|

mehr. Ich will weg, ich will raus, ich will - wunsch mir was. Und ein
C G P.M.---|
 
 e|-0---------------|-----------------|-------3---------|-----------------|
 B|-1---------------|-----------------|-----------------|-----------------|
 G|-0---------------|-----------------|----0------------|-----------------|
 D|-x---------------|-----------------|-----------------|-----------7h9p7-|
 A|-3---------------|-----------------|-----------------|----10-9-10------|
 E|-----------------|-----------------|-3---------------|-----------------|

kleiner Junge nimmt mich an die Hand. Er winkt mir zu und
[G] [Dm]  
 
 e|-----------------|-----------------|-1---0-----------|-----------------|
 B|-----------------|-----------------|-3-------3-------|-----------------|
 G|-----------------|-----------------|-2---------------|-----------------|
 D|-----------------|-----------------|-0---------------|-----------------|
 A|-10~-------------|-----------------|-----------------|-----------------|
 E|-----------------|-----------------|-----------------|-----------------|

grinst: Komm hier weg,komm hier raus,komm,ich zeig dir was. Das du
[C] [C/A#] [G#] [A#]  
 
 e|-----------------|-----------------|-----------------|-----------------|
 B|-----------------|-----------------|-----------------|-----------------|
 G|-----------------|-----------------|-----------------|-----------------|
 D|-5---------------|-5---------------|-----------------|-----------------|
 A|-3---------------|-1---------------|-6---------------|-8---------------|
 E|-----------------|-----------------|-4---------------|-6---------------|

verlernt hast, vor lauter Verstand. Komm mit!
Chorus
[D#] [Cm] [Gm] [G#] [A#]  
 
 e|-----------------|-----------------|-----------------|-----------------|
 B|-----------------|-----------------|-----------------|-----------------|
 G|-----------------|-----------------|-----------------|-----------------|
 D|-8-------8-------|-----------------|-----------------|-----------------|x3
 A|-6-------6-------|-5-----\---1h3---|-1~--------------|-6-----/-8-------|
 E|-----------------|-----------------|-----------------|-4-----/-6-------|

Komm mit mir ins Abenteuerland auf deine eig'ne Reise.
Komm mit mir ins Abenteuerland, der Eintritt kostet den Verstand.
Komm mit mir ins Abenteuerland und tu's auf deine Weise,
[Cm] [A#] [G#] [F]  
 
 e|-----------------|-----------------|-----------------|-----------------|
 B|-----------------|-----------------|-----------------|-----------------|
 G|-----------------|-----------------|-----------------|-----------------|
 D|-----------------|-----------------|-----------------|-----------------|
 A|-3~--------------|-1~--------------|-0-------8\------|-----------------|
 E|-----------------|-----------------|-----------------|-1~--------------|

Deine Phantasie schenkt dir ein Land, das Abenteuer-
[G#]  
 
 e|-----------------|-----------------|
 B|(6)------------/-|-13~-------(13)\-|
 G|-----------------|-----------------|
 D|-----------------|-----------------|
 A|-6---------------|-----------------|
 E|-4---------------|-----------------|

Land.
Gitarren-Fill
Am C Em F P.H.
 
 e|-----------------|-----------------|-----------------|-----------------|
 B|-----------------|-----------------|-----------------|-----------------|
 G|-----4-----------|-----------------|-7b8--------(8)r-|-7p5-------------|
 D|/7-7---7---5~----|-----------------|-----------------|-----7~----------|
 A|-----------------|-3-3/5h7~------\-|-----------------|-----------------|
 E|-----------------|-----------------|-----------------|-----------------|

Vers 2
[Am]Neue For[C]m, verspielt und w[Em]ild, die W[D]olken mal'n ein [Am]Bild.
Der Wind pfeift d[C]azu dieses L[Em]ied, in dem sich j[F]eder Wunsch
Pre-Chorus
[G] [Dm]  
 
 e|-----------------|-----------------|-1---0-----------|-----------------|
 B|-3---------------|-----------------|-3-------3-------|-----------------|
 G|-0---------------|-----------------|-2---------------|-----------------|
 D|-0---------------|-----------------|-0---------------|-----------------|
 A|-x---------------|-----------------|-----------------|-----------------|
 E|-3---------------|-----------------|-----------------|-----------------|

erfullt. Ich erfinde, verwandle mit Zauberkraft, die
[C] [G]  
 
 e|-0---------------|-----------------|-----------------|-----------------|
 B|-1---------------|-----------------|-----------------|-----------------|
 G|-0---------------|-----------------|-0---------------|-----------------|
 D|-x---------------|-----------------|-0---------------|-----------------|
 A|-3---------------|-----------------|-x---------------|-----------0h2p0-|
 E|-----------------|-----------------|-3---------------|-----3-2-3-------|

Armee der Zeigefinger brullt: "Du spinnst." Ich streck den Finger
[G] [Dm]  
 
 e|-----------------|-----------------|-1---0-----------|-----------------|
 B|-----------------|-----------------|-3-------3-------|-----------------|
 G|-----------------|-----------------|-2---------------|-----------------|
 D|-----------------|-----------------|-0---------------|-----------------|
 A|-----------------|-----------------|-----------------|-----------------|
 E|-3~--------------|-----------------|-----------------|-----------------|

aus. ich verhexe, verbanne, ich hab' die Macht. Solange der
[C] [C/A#] [G#] [A#]  
 
 e|-----------------|-----------------|-----------------|-----------------|
 B|-----------------|-----------------|-----------------|-----------------|
 G|-----------------|-----------------|-----------------|-----------------|
 D|-5---------------|-5---5---5---5---|-----------------|-----------------|
 A|-3---------------|-1---1---1---1---|-6---6---6---6---|-8---------------|
 E|-----------------|-----------------|-4---4---4---4---|-6---------------|

Kleine da im Spiegel noch grinst. Komm mit!
Chorus (Gitarre 2 spielt Riff A)
[D#] [Cm] [Gm] [G#] [A#]  
 
 e|-----------------|-----------------|-----------------|-----------------|
 B|-----------------|-----------------|-----------------|-----------------|
 G|-----------------|-----------------|-----------------|-----------------|
 D|-8-------8-------|-----------------|-----------------|-----------------|x3
 A|-6-------6-------|-5-----\---1h3---|-1~--------------|-6-----/-8-------|
 E|-----------------|-----------------|-----------------|-4-----/-6-------|

Komm mit mir ins Abenteuerland auf deine eig'ne Reise.
Komm mit mir ins Abenteuerland, der Eintritt kostet den Verstand.
Komm mit mir ins Abenteuerland und tu's auf deine Weise,
Riff A
 
 e|--------------------|---------------------|-----------------|-----------------|
 B|-15/16-16~----------|-15------------------|-----------------|-----------------|
 G|--------------------|------17---15-h-17---|-15~-------------|-(15~)-----------|
 D|--------------------|---------------------|-----------------|-----------------|x3
 A|--------------------|---------------------|-----------------|-----------------|
 E|--------------------|---------------------|-----------------|-----------------|

[Cm] [A#] [G#] [F]  
 
 e|-----------------|-----------------|-----------------|-----------------|
 B|-----------------|-----------------|-----------------|-----------------|
 G|-----------------|-----------------|-----------------|-----------------|
 D|-----------------|-----------------|-----------------|-----------------|
 A|-3~--------------|-1~--------------|-0-------8\------|-----------------|
 E|-----------------|-----------------|-----------------|-1~--------------|

Deine Phantasie schenkt dir ein Land, das Abenteuer-
 
 G# P.H.-------------|
 e|-----------------|-----------------|
 B|-----------------|-----------------|
 G|-----------------|-----------5/7---|
 D|-----------------|-----5-7-5-------|
 A|-6---------------|-5-7-------------|
 E|-4---------------|-----------------|

Land.
Bridge / Gitarre 2 spielt Noten in () mit geschlossenenm Wah-Pedal
[F#]  
 
 e|-----------------|-----------------|-----------------|-----------------|
 B|-----------------|-----------------|-----------------|-----------------|
 G|-----------------|-----------------|-----------------|-----------------|
 D|-----------------|-----------------|-----------------|-----------------|
 A|-4---4-----------|-4---4-----------|-4---4-----------|-4---4-----------|
 E|-2---2-----------|-2---2-----------|-2---2-----------|-2---2-----------|

Peter Pan und Kapt'n Hook, mit siebzehn Feuerdrachen,
[D#]  
 
 e|-----------------|-----------------|-----------------|-----------------|
 B|-----------------|-----------------|-----------------|-----------------|
 G|-----------------|-----------------|-----------------|-----------------|
 D|-6---6-----------|-6---6-----------|-6---6---6---6---|-6---6-----------|
 A|-4---4-----------|-4---4-----------|-4---4---4---4---|-4---4\----1-----|
 E|-----------------|-----------------|-----------------|---------------4-|

alles kannst Du sehen wenn Du willst. Oh-Ho
[F#]  
 
 e|-----------------|-----------------|-----------------|-----------------|
 B|-----------------|-----------------|-----------------|-----------------|
 G|(17)~----------\-|(15)~----------\-|(13)~----------/-|(15)~-------/(19)|
 D|-----------------|-----------------|-----------------|-----------------|
 A|-4---4-----------|-4---4-----------|-4---4-----------|-4---4-----------|
 E|-2---2-----------|-2---2-----------|-2---2-----------|-2---2-----------|

Donnervogel, Urgeschrei, Engel die laut lachen,
[D#]  
 
 e|-----------------|-----------------|-----------------|-----------------|
 B|(21)~------------|-----------------|-----------------|-----------------|
 G|-----------------|(20)~------------|(18)~------------|(15)~-\(13)~-----|
 D|-6---6-----------|-6---6-----------|-6---6-----------|-----------------|
 A|-4---4-----------|-4---4-----------|-4---6-----------|-8------6---\\\--|
 E|-----------------|-----------------|-----------------|-6------4---\\\--|

alles kannst Du horen, wenn Du willst. Du kannst
 
 e|-----------------|-----------------|-----------------|-----------------|
 B|-----------------|-----------------|-----------------|-----------------|
 G|(11)~----------/-|(13)~----------/-|(15)~----------/-|(18)~------------|
 D|-----------------|-----------------|-----------------|-----------------|
 A|-----------------|-----------------|-----------------|-----------------|
 E|-2---2---2---2---|-4---4---4---4---|-6---6---6---6---|-9---9---9---9---|

flippen, flitzen, fliegen und das groste Pferd kriegen, Du kannst
 
 e|-----------------|-----------------|-----------------|-----------------|
 B|-----------------|(17--17--17--17)-|(18--21--17--18)~|------(18)~------|
 G|(20--20--20--20)-|-----------------|-----------------|-----------------|
 D|-----------------|-----------------|-----------------|-----------------|
 A|-----------------|-----------------|-----11----------|-----------------|
 E|-11--11--11--11--|-12--12--12--12--|-13------12--13~-|-------13~-------|

tanzen, taumeln, traumen und die Schule versaumen.
[F#] [F] [G#]  
 
 e|-----------------|-----------------|-----------------|-----------------|
 B|-----------------|-----------------|-----------------|-----------------|
 G|(17)~------------|(15)~------/-----|(20)~------------|(20)~------------|
 D|-----------------|-----------------|-----------------|-----------------|
 A|-4---4-----------|-4---4-----------|-3---3-----------|-6---6-----------|
 E|-2---2-----------|-2---2-----------|-1---1-----------|-4---4-----------|

Alles das ist moglich in Dir drin, in Deinem Land.
[A#]  
 
 e|-----------------|-------------(17h|-18)~--(18b20~20)|(18)~------------|
 B|(18)~------------|(18)~------------|-----------------|-----------------|
 G|-----------------|-----------------|-----------------|-----------------|
 D|-----------------|-----------------|-----------------|-----------------|
 A|-8---8-----------|-8---8-----------|-8---8-----------|-8---8---8---8---|
 E|-6---6-----------|-6---6-----------|-6---6-----------|-6---6---6---6---|

Trau Dich nur zu spinnen, es liegt in Deiner Hand. Komm mit!
Zwischenspiel (Gitarre 2 spielt Arpeggio clean mit Chorus Effekt)
Git. 1
 
 e|-----------------|-----------------|-----------------|-----------------|
 B|-----------------|-----------------|-----------------|-----------------|
 G|-----------------|-----------------|-----------------|-----------------|
 D|-8---------------|-(8)-------------|-(8)-------------|-(8)-------------|
 A|-6---------------|-(6)-------------|-(6)-------------|-(6)-------------|
 E|-----------------|-----------------|-----------------|-----------------|
 e|-----------------|-----------------|-----------------|-----------------|
 B|-16--------------|-----------------|-----------------|-----------------|
 G|-----------------|-15-----17-------|-15~-------------|-----------------|
 D|-----------------|-----------------|-----------------|-----------------|
 A|-----------------|-----------------|-----------------|-6-------8-------|
 E|-----------------|-----------------|-----------------|-4-------6-------|

|........Fadet diese Noten ein und aus................|
Git. 2
 
 e|-----------------|-8---------------|-----------------|-8---------------|
 B|--------8--------|----8--8---------|--------8--------|----8--8---------|
 G|-----10-----10---|-----10---10--10-|-----10-----10---|-----10---10--10-|
 D|10-10---------10-|------------10---|10-10---------10-|------------10---|x2
 A|-----------------|-----------------|-----------------|-----------------|
 E|-----------------|-----------------|-----------------|-----------------|

Chorus
[D#] [Cm] [Gm] [G#] [A#]  
 
 e|-----------------|-----------------|-----------------|-----------------|
 B|-----------------|-----------------|-----------------|-----------------|
 G|-----------------|-----------------|-----------------|-----------------|
 D|-8-------8-------|-----------------|-----------------|-----------------|x3
 A|-6-------6-------|-5-----\---1h3---|-1~--------------|-6-----/-8-------|
 E|-----------------|-----------------|-----------------|-4-----/-6-------|

Komm mit mir ins Abenteuerland auf deine eig'ne Reise.
Komm mit mir ins Abenteuerland, der Eintritt kostet den Verstand.
Komm mit mir ins Abenteuerland und tu's auf deine Weise,
[Cm] [A#] [G#] [F] [A#]  
 
 e|-----------------|-----------------|-----------------|-----------------|
 B|-----------------|-----------------|-----------------|-----------------|
 G|-----------------|-----------------|-----------------|-----------------|
 D|-----------------|-----------------|-----------------|-----------------|
 A|-3~--------------|-1~--------------|-0-------8\------|-----------------|
 E|-----------------|-----------------|-----------------|-1~------6-------|

Deine Phantasie schenkt dir ein Land, das Abenteuerland.
[D#] [Cm] [Gm] [G#] [A#]  
 
 e|-----------------|-----------------|-----------------|-----------------|
 B|-----------------|-----------------|-----------------|-----------------|
 G|-----------------|-----------------|-----------------|-----------------|
 D|-8---x-x-8-------|-----------------|-----------------|-----------------|x3
 A|-6---x-x-6-------|-5-----\---1h3---|-1~--------------|-6-----/-8-------|
 E|-----------------|-----------------|-----------------|-4-----/-6-------|

Komm mit mir ins Abenteuerland auf deine eig'ne Reise.
Komm mit mir ins Abenteuerland, der Eintritt kostet den Verstand.
(Komm mit mir ins Abenteuerland...) Fade Out

Important: The song above is NOT stored on the Chordie server. The original song is hosted at www.azchords.com. Chordie works as a search engine and provides on-the-fly formatting. Chordie does not index songs against artists'/composers' will. To remove this song please click here.

Text color:
Chord color:
Chord grids: 
Font size:    
Page size: 

A# Am C C/A# Cm D D# Dm Em F F# G G# Gm
Rate #2 of 4 versions

Jango Player

Login - add to songbook

SHARE PAGE  




You need to log in to post comments