Guitar Tabs, Chords and Lyrics
Major upgrade!! After one year development the new version of Chordie is now online! Please give feedback.


Six Shooter   Queens of the Stone Age

 
 e|---------------------------------------------------------------------|
 B|-------------------8-8--------------------8-8--------------------8-8-|
 G|--------------7-7------1--1-3-1-0-1--7-7--7-7-1--1-3-1-0-1--7-7--7-7-|
 D|5--6-8-6-5-6-----------2--2-2-2-2-2--7-7--5-5-2--2-2-2-2-2--7-7--5-5-|
 A|-----------------------2--2-2-2-2-2--5-5------2--2-2-2-2-2--5-5------|
 E|-----------------------0--0-0-0-0-0-----------0--0-0-0-0-0-----------|

 


 


 [Verse 1] 


 


 Guitar 1:


 


 

 
 e|--------------------------------------------------------------------------------------------|
 B|-------------------8-8--------------------8-8--------------------8-8--------------------8-8-|
 G|1--1-3-1-0-1--7-7--7-7-1--1-3-1-0-1--7-7--7-7-1--1-3-1-0-1--7-7--7-7-1--1-3-1-0-1--7-7--7-7-|
 D|2--2-2-2-2-2--7-7--5-5-2--2-2-2-2-2--7-7--5-5-2--2-2-2-2-2--7-7--5-5-2--2-2-2-2-2--7-7--5-5-|
 A|2--2-2-2-2-2--5-5------2--2-2-2-2-2--5-5------2--2-2-2-2-2--5-5------2--2-2-2-2-2--5-5------|
 E|0--0-0-0-0-0-----------0--0-0-0-0-0-----------0--0-0-0-0-0-----------0--0-0-0-0-0-----------|

 


 


 Guitar 2:


 


 

 
 e|---------------------------------------------------------------------15---------------------|
 B|-----------------------15----------------------12-------------------------------------------|
 G|14------------------------------------------------------------------------------------------|
 D|--------------------------------------------------------------------------------------------|
 A|--------------------------------------------------------------------------------------------|
 E|--------------------------------------------------------------------------------------------|

 


 


 [Cborus 1] 


 


 Guitar 1:


 


 

 
 e|-------------------------------------------------------|
 B|-----------------------------------8-8-----------------|
 G|2-2-4-4-5-5-7-8-1--1-3-1-1-1--7-7--7-7-2-2-4-4-5-5-7-8-|
 D|2-2-4-4-5-5-7-8-2--2-2-2-2-2--7-7--5-5-2-2-4-4-5-5-7-8-|
 A|0-0-2-2-3-3-5-6-2--2-2-2-2-2--5-5------0-0-2-2-3-3-5-6-|
 E|----------------0--0-0-0-0-0---------------------------|

 


 


 Guitar 2:


 


 

 
 e|-------------------------------------------------------|
 B|------------17-------------------------17--15------12--|
 G|----13--16------16-----------------------------14------|
 D|14-----------------------------------------------------|
 A|-------------------------------------------------------|
 E|-------------------------------------------------------|

 


 


 [Bridge 1] 


 


 Guitar 1:


 


 

 
 e|--------------------------------------------------------------------------------------------|
 B|--------------------------------------------------------------------------------------------|
 G|1--1-3-1-0-1--7-7------1--1-3-1-0-1--7-7------1--1-3-1-0-1--7-7------1--1-3-1-0-1--7-7------|
 D|2--2-2-2-2-2--7-7--5-5-2--2-2-2-2-2--7-7--5-5-2--2-2-2-2-2--7-7--5-5-2--2-2-2-2-2--7-7--5-5-|
 A|2--2-2-2-2-2--5-5--5-5-2--2-2-2-2-2--5-5--5-5-2--2-2-2-2-2--5-5--5-5-2--2-2-2-2-2--5-5--5-5-|
 E|0--0-0-0-0-0-------3-3-0--0-0-0-0-0-------3-3-0--0-0-0-0-0-------3-3-0--0-0-0-0-0-------3-3-|

 


 


 Guitar 2:


 


 

 
 e|--------------------------------------------------------------------------------------------|
 B|-------------------8----------------------8----------------------8----------------------8---|
 G|--------------7-7--------------------7-7--------------------7-7--------------------7-7------|
 D|2--2-2-2-2-2-----------2--2-2-2-2-2-----------2--2-2-2-2-2-----------2--2-2-2-2-2-----------|
 A|2--2-2-2-2-2-----------2--2-2-2-2-2-----------2--2-2-2-2-2-----------2--2-2-2-2-2-----------|
 E|0--0-0-0-0-0-----------0--0-0-0-0-0-----------0--0-0-0-0-0-----------0--0-0-0-0-0-----------|

 


 


 [Verse 2] 


 


 Guitar 1:


 


 

 
 e|--------------------------------------------------------------------------------------------|
 B|--------------------------------------------------------------------------------------------|
 G|1--1-3-1-0-1--7-7------1--1-3-1-0-1--7-7------1--1-3-1-0-1--7-7------1--1-3-1-0-1--7-7------|
 D|2--2-2-2-2-2--7-7--5-5-2--2-2-2-2-2--7-7--5-5-2--2-2-2-2-2--7-7--5-5-2--2-2-2-2-2--7-7--5-5-|
 A|2--2-2-2-2-2--5-5--5-5-2--2-2-2-2-2--5-5--5-5-2--2-2-2-2-2--5-5--5-5-2--2-2-2-2-2--5-5--5-5-|
 E|0--0-0-0-0-0-------3-3-0--0-0-0-0-0-------3-3-0--0-0-0-0-0-------3-3-0--0-0-0-0-0-------3-3-|

 


 


 Guitar 2:


 


 

 
 e|-----------------------12---------------------12--10-8-10-7-7--------12--10-8-10-10-10------|
 B|--------------------------------------------------------------------------------------------|
 G|--------------------------------------------------------------------------------------------|
 D|5-6-7-6-5-5---------------------------------------------------------------------------------|
 A|--------------------------------------------------------------------------------------------|
 E|--------------------------------------------------------------------------------------------|

 


 


 [Cborus 2] 


 


 Guitar 1:


 


 

 
 e|-------------------------------------------------------|
 B|-------------------------------------------------------|
 G|2-2-4-4-5-5-7-8-1--1-3-1-0-1--7-7------2-2-4-4-5-5-7-8-|
 D|2-2-4-4-5-5-7-8-2--2-2-2-2-2--7-7--5-5-2-2-4-4-5-5-7-8-|
 A|0-0-2-2-3-3-5-6-2--2-2-2-2-2--5-5--5-5-0-0-2-2-3-3-5-6-|
 E|----------------0--0-0-0-0-0-------3-3-----------------|

 


 


 Guitar 2:


 


 

 
 e|-----------------------6-----------------------8---10--|
 B|----7---8---10-----8-9---9-8-------------10--12--------|
 G|8-9-------------9--------------------------------------|
 D|-------------------------------------------------------|
 A|-------------------------------------------------------|
 E|-------------------------------------------------------|

 


 


 [Bridge 2] 


 


 Guitar 1:


 


 

 
 e|--------------------------------------------------------------------------------------------|
 B|--------------------------------------------------------------------------------------------|
 G|1--1-3-1-0-1--7-7------1--1-3-1-0-1--7-7------1--1-3-1-0-1--7-7------1--1-3-1-0-1--7-7------|
 D|2--2-2-2-2-2--7-7--5-5-2--2-2-2-2-2--7-7--5-5-2--2-2-2-2-2--7-7--5-5-2--2-2-2-2-2--7-7--5-5-|
 A|2--2-2-2-2-2--5-5--5-5-2--2-2-2-2-2--5-5--5-5-2--2-2-2-2-2--5-5--5-5-2--2-2-2-2-2--5-5--5-5-|
 E|0--0-0-0-0-0-------3-3-0--0-0-0-0-0-------3-3-0--0-0-0-0-0-------3-3-0--0-0-0-0-0-------3-3-|

 


 


 Guitar 2:


 


 

 
 e|-------------------------------------------------12-12-----------------13-10-13-12-12-------|
 B|--------------------------------------------------------------------------------------------|
 G|-------------------12--9-9-9-9-9-----------12--9-------9---------12--9----------------------|
 D|--------------------------------------------------------------------------------------------|
 A|--------------------------------------------------------------------------------------------|
 E|--------------------------------------------------------------------------------------------|

 


 


 [Outro] 


 


 Guitar 1:


 


 

 
 e|-------------------|
 B|-------------------|
 G|2-2-4-4-5-5-7-8-1--|
 D|2-2-4-4-5-5-7-8-2--|
 A|0-0-2-2-3-3-5-6-2--|
 E|----------------0--|

 


 


 Guitar 2:


 


 

 
 e|15--17--18--21--19-|
 B|-------------------|
 G|-------------------|
 D|-------------------|
 A|-------------------|
 E|-------------------| 


Important: The song above is NOT stored on the Chordie server. The original song is hosted at www.azchords.com. Chordie works as a search engine and provides on-the-fly formatting. Chordie does not index songs against artists'/composers' will. To remove this song please click here.

This song is displayed as text-only. Transposing and tuning is only available for chordpro-songs.
Rate #1 of 1 versions

Jango Player

Login - add to songbook

SHARE PAGE  




You need to log in to post comments