Guitar Tabs, Chords and Lyrics
Update 25:10. 13:00. Site is back up running again. Songbooks are recovered. Woring on getting search back up..


I Believe  Quo Vadis

I BELIEVE
As recorded by Quo Vadis
(From the 2000 Album DAY INTO NIGHT)
Words and Music by Arie Itman
Arranged by Quo Vadis
As far as Quo Vadis songs go, this is an easier one to play. I'm 100A?¿¿)?¿¿m?¿¿??¿¿§?¿¿??¿¿(?¿¿(?¿¿v?¿¿??¿¿¯?¿¿??¿¿î?¿¿
Note: There are lots of ghost notes everywhere in this tab. In the PowerTab version you can clearly see that they're tied notes but it can get confusing. For the sake of simplicity, ignore them in this text tab.
Gtr I (E A D G B E) - 'Arie Itman'
Gtr II (E A D G B E) - 'Bart Frydrychowicz'
Intro
[E] [Dsus2/E]  
[4/4] Gtrs I, II
 
 PM------------------------------------------------------|
 ||------------------------------|-----------------------------|
 ||o-----------------------------|-----------------------------|
 ||------------------------------|-----------------------------|
 ||------------------------------|-----------------------------|
 ||o-7-7-7--7--7-7--7-7--7-7-7-7-|-5-5-5--5--5-5--5-5--5-5-5-5-|
 ||--0-0-0--0--0-0--0-0--0-0-0-0-|-0-0-0--0--0-0--0-0--0-0-0-0-|

[C] [E5]  
 
 PM---------------------------------------------| ~
 |-----------------------------|----------------------------||
 |-----------------------------|---------------------------o||
 |-----------------------------|----------------------------||
 |-----------------------------|----------------------------||
 |-1-1-1--1--1-1--1-1--1-1-1-1-|-2-2-2--2--2-2--2-2--------o||
 |-0-0-0--0--0-0--0-0--0-0-0-0-|-0-0-0--0--0-0--0-0--3h5-5--||

[E]  
 
 |-----------------------------------------|
 |-----------------------------------------|
 |-----------------------------------------|
 |-----------------------------------------|
 |-7-7-7-(7)-7-(7)-7-7-(7)-7-7-(7)-7-7-7-7-|
 |-0-0-0-(0)-0-(0)-0-0-(0)-0-0-(0)-0-0-0-0-|

|
| Gtr II
 
 |-----------------------------------------|
 |-----------------------------------------|
 |-----------------------------------------|
 |-----------------------------------------|
 |-7-7-7-(7)-7-(7)-7-7-(7)-7-7-(7)-7-7-7-7-|
 |-----------------------------------------|

Note: On the album version of this riff Gtr II was recorded over Gtr I
simply to accent the note. When playing live, both guitars play the Gtr I track.
[Esus2]  
 
 |-----------------------------------------|
 |-----------------------------------------|
 |-----------------------------------------|
 |-----------------------------------------|
 |-9-9-9-(9)-9-(9)-9-9-(9)-9-9-(9)-9-9-9-9-|
 |-0-0-0-(0)-0-(0)-0-0-(0)-0-0-(0)-0-0-0-0-|

|
 
 |-----------------------------------------|
 |-----------------------------------------|
 |-----------------------------------------|
 |-----------------------------------------|
 |-9-9-9-(9)-9-(9)-9-9-(9)-9-9-(9)-9-9-9-9-|
 |-----------------------------------------|

[C5]  
 
 |---------------------------------------------------------|
 |---------------------------------------------------------|
 |---------------------------------------------------------|
 |---------------------------------------------------------|
 |-10-10-10-(10)-10-(10)-10-10-(10)-10-10-(10)-10-10-10-10-|
 |--8--8--8--(8)--8--(8)--8--8--(8)--8--8--(8)--8--8--8--8-|

|
 
 |---------------------------------------------------------|
 |---------------------------------------------------------|
 |---------------------------------------------------------|
 |---------------------------------------------------------|
 |-10-10-10-(10)-10-(10)-10-10-(10)-10-10-(10)-10-10-10-10-|
 |--8--8--8--(8)--8--(8)--8--8--(8)--8--8--(8)--8--8--8--8-|

[G5/D] ~
 
 |---------------------------------------------------|
 |---------------------------------------------------|
 |---------------------------------------------------|
 |---------------------------------------------------|
 |-10-10-10-(10)-10-(10)-10--9--(9)--9--9--(9)-------|
 |-10-10-10-(10)-10-(10)-10-10-(10)-10-10-(10)-5h7-7-|

|
| ~
 
 |---------------------------------------------------|
 |---------------------------------------------------|
 |---------------------------------------------------|
 |---------------------------------------------------|
 |-10-10-10-(10)-10-(10)-10--9--(9)--9--9--(9)-------|
 |-10-10-10-(10)-10-(10)-10-10-(10)-10-10-(10)-5h7-7-|

[E]  
 
 |-----------------------------------------|
 |-----------------------------------------|
 |-----------------------------------------|
 |-----------------------------------------|
 |-7-7-7-(7)-7-(7)-7-7-(7)-7-7-(7)-7-7-7-7-|
 |-0-0-0-(0)-0-(0)-0-0-(0)-0-0-(0)-0-0-0-0-|

|
 
 |-----------------------------------------|
 |-----------------------------------------|
 |-----------------------------------------|
 |-----------------------------------------|
 |-7-7-7-(7)-7-(7)-7-7-(7)-7-7-(7)-7-7-7-7-|
 |-----------------------------------------|

[Esus2]  
 
 |-----------------------------------------|
 |-----------------------------------------|
 |-----------------------------------------|
 |-----------------------------------------|
 |-9-9-9-(9)-9-(9)-9-9-(9)-9-9-(9)-9-9-9-9-|
 |-0-0-0-(0)-0-(0)-0-0-(0)-0-0-(0)-0-0-0-0-|

|
 
 |-----------------------------------------|
 |-----------------------------------------|
 |-----------------------------------------|
 |-----------------------------------------|
 |-9-9-9-(9)-9-(9)-9-9-(9)-9-9-(9)-9-9-9-9-|
 |-----------------------------------------|

[C5]  
 
 |---------------------------------------------------------|
 |---------------------------------------------------------|
 |---------------------------------------------------------|
 |---------------------------------------------------------|
 |-10-10-10-(10)-10-(10)-10-10-(10)-10-10-(10)-10-10-10-10-|
 |--8--8--8--(8)--8--(8)--8--8--(8)--8--8--(8)--8--8--8--8-|

|
 
 |---------------------------------------------------------|
 |---------------------------------------------------------|
 |---------------------------------------------------------|
 |---------------------------------------------------------|
 |-10-10-10-(10)-10-(10)-10-10-(10)-10-10-(10)-10-10-10-10-|
 |--8--8--8--(8)--8--(8)--8--8--(8)--8--8--(8)--8--8--8--8-|

[G5/D] ~
 
 |---------------------------------------------------|
 |---------------------------------------------------|
 |---------------------------------------------------|
 |---------------------------------------------------|
 |-10-10-10-(10)-10-(10)-10--9--(9)--9--9--(9)-----5-|
 |-10-10-10-(10)-10-(10)-10-10-(10)-10-10-(10)-3h5---|

|
| ~
 
 |---------------------------------------------------|
 |---------------------------------------------------|
 |---------------------------------------------------|
 |---------------------------------------------------|
 |-10-10-10-(10)-10-(10)-10--9--(9)--9--9--(9)-----5-|
 |-10-10-10-(10)-10-(10)-10-10-(10)-10-10-(10)-3h5---|

Main Verse Riff
$
[E5]Gtrs I, II
PM PM PM PM----|
 
 ||--------------------|-----------------------------|
 ||o-------------------|-----------------------------|
 ||--------------------|-----------------------------|
 ||--------------------|-----------------------------|
 ||o-2--x-2------------|-------------2-(2)-----------|
 ||--0--x-0--0--0-0--0-|-7p5-0-3h5-0-0-(0)--0-0-0-0--|

[D5] PM PM [G5] PM|[A5] [D5/A]
 
 |------------------|---------------------------||
 |------------------|--------------------------o||
 |------------------|---------------------------||
 |-7----7-----------|---------------------------||
 |-5----5-----------|-5----3--/7-(7)--7--5h=7--o||
 |----x-----7p5-0-5-|-3--0-5--/5-(5)--5--5-(5)--||

Chorus
[E5] ~ PM[F#5]| [G5] ~~~~~~
 
 ||----------------|------------------------|
 ||o---------------|------------------------|
 ||----------------|------------------------|
 ||----------------|------------------------|
 ||o-2--/7-5---2-4-|-5--/9-7-(7)-9-10-(10)\-|
 ||--0---------0-2-|-3----------------------|

To Coda
[A5] ~~~~~~
 
 |--------------|--------------------||
 |--------------|-------------------o||
 |--------------|--------------------||
 |--------------|-----5----------7---||
 |-7--/7-5---5--|---5-----10---7----o||
 |-5------------|-3-----8----5-------||

Interlude 1
[E5]  
 
 PM---------------| PM-------------------------| ~
 |-----------------------------|---------------------------|
 |-----------------------------|---------------------------|
 |-----------------------------|---------------------------|
 |-----------------------------|---------------------------|
 |-2-2-2--2--2-2--2-2--2-2-2-2-|-2-2-2--2--2-2--2-2--------|
 |-0-0-0--0--0-0--0-0--0-0-0-0-|-0-0-0--0--0-0--0-0--3h5-5-|

D.S.
 
 PM---------------| PM------------------|
 |-----------------------------|-------------------------|
 |-----------------------------|-------------------------|
 |-----------------------------|-------------------------|
 |-----------------------------|-------------------------|
 |-2-2-2--2--2-2--2-2--2-2-2-2-|-2-2-2--2--2-2-------5---|
 |-0-0-0--0--0-0--0-0--0-0-0-0-|-0-0-0--0--0-0---3h5-----|

Interlude 2
&
Gtr I
 
 |---------------------------------|---------------------------------|
 |---------------------------------|---------------------------------|
 |---------------------------------|---------------------------------|
 |---------------------------------|---------------------------------|
 |-----7-----7-----7-----7-----7h8-|-----7-----7-----7-----7-----7h8-|
 |-0-0---0-0---0-0---0-0---0-0-----|-0-0---0-0---0-0---0-0---0-0-----|

|
| Gtr II
| PM
 
 |---------------------------------|---------------------------------|
 |---------------------------------|---------------------------------|
 |---------------------------------|---------------------------------|
 |---------------------------------|---------------------------------|
 |-7-------------------------------|-7-------------------------------|
 |-0-------------------------------|-0-------------------------------|

Gtr I
PM| PM--|
 
 |---------------------------------|---------------------------------|
 |---------------------------------|---------------------------------|
 |---------------------------------|---------------------------------|
 |---------------------------------|---------------------------------|
 |-----7-----7-----7-----7-----7h8-|-----7-----7-----7p5-----5-------|
 |-0-0---0-0---0-0---0-0---0-0-----|-0-0---0-0---0-0-----7-6---7-6-5-|

|
| Gtr II
| PM PM| PM--|
 
 |---------------------------------|---------------------------------|
 |---------------------------------|---------------------------------|
 |---------------------------------|---------------------------------|
 |---------------------------------|-----------------7p5-----5-------|
 |-7-------------------------------|-7-------------------7-6---7-6-5-|
 |-0-------------------------------|-0-------------------------------|

PM| PM| PM| PM| PM| PM| PM| PM| PM| PM--|
3x
 
 ||-----------------------------------||----------------------------------|
 ||o---------------------------------o||----------------------------------|
 ||-----------------------------------||----------------------------------|
 ||-----------------------------------||----------------------------------|
 ||o-----7-----7-----7-----7-----7h8-o||-----7-----7-----7p5-----5--------|
 ||--0-0---0-0---0-0---0-0---0-0------||-0-0---0-0---0-0-----7-6---7-6-5--|

|
| Gtr II
| PM| PM| PM| PM| PM| PM| PM| PM| PM| PM--|
| 3x
 
 ||-----------------------------------||----------------------------------|
 ||o---------------------------------o||----------------------------------|
 ||-----------------------------------||----------------------------------|
 ||-----------------------------------||-----------------7p5-----5--------|
 ||o-----7-----7-----7-----7-----7h8-o||-----7-----7---------7-6---7-6-5--|
 ||--0-0---0-0---0-0---0-0---0-0------||-0-0---0-0---0-0------------------|

Fast Riff
Gtrs I, II
PM| PM| PM| PM| PM| PM| PM PM PM
 
 |---------------------------------|---------------------------------|
 |---------------------------------|---------------------------------|
 |---------------------------------|---------------------------------|
 |-----2h5-----2h5-----2h5-----2h5-|-----2h5-----2h5---2h5---2h5---4-|
 |---------------------------------|---------------------------------|
 |-0-0-----0-0-----3-3-----3-3-----|-5-5-----5-5-----3-----5-----3---|

PM| PM| PM| PM| PM| PM| PM PM
 
 |---------------------------------|-------------------------------|
 |---------------------------------|-------------------------------|
 |---------------------------------|-------------------------------|
 |-----2h5-----2h5-----2h5-----2h5-|-----2h5-----2h5---2h5---2h5-4-|
 |---------------------------------|-------------------------------|
 |-0-0-----0-0-----3-3-----3-3-----|-5-5-----5-5-----3-----5-------|

PM| PM| PM| PM| PM| PM| PM PM PM
 
 |---------------------------------|---------------------------------|
 |---------------------------------|---------------------------------|
 |---------------------------------|---------------------------------|
 |-----2h5-----2h5-----2h5-----2h5-|-----2h5-----2h5---2h5---2h5---4-|
 |---------------------------------|---------------------------------|
 |-0-0-----0-0-----3-3-----3-3-----|-5-5-----5-5-----3-----5-----3---|

PM| PM| PM| PM|
 
 |---------------------------------|
 |---------------------------------|
 |---------------------------------|
 |-----2h5-----2h5-----2h5-----2h5-|
 |---------------------------------|
 |-0-0-----0-0-----3-3-----3-3-----|

PM| PM| [E5] PM
 
 |-----------------------------------------|-----------------|
 |-----------------------------------------|-----------------|
 |-----------------------------------------|-----------------|
 |-----2h5-----2h5-5p4p2-------------------|-----------------|
 |-----------------------5p4p2-5p4p2-------|-2--x-2---7tr8---|
 |-5-5-----5-5-----------------------5p3p2-|-0--x-0----------|

Solo Rhythm
[E5] [G5] [C5] [A5]  
 
 PM----| PM----|
 |-------------------|-----------------------|
 |-------------------|-----------------------|
 |-------------------|-----------------------|
 |-9-----------------|---------5----------2--|
 |-7--5h7-7-(7)-5-5--|-3-3-3-3-3--0-0-0-0-0--|
 |--------------3-3--|-----------------------|

[E5] [G5] [C5] [D5]  
 
 PM----| PM----|
 |-------------------|-------------------------|
 |-------------------|-------------------------|
 |-------------------|-------------------------|
 |-9-----------------|---------5----------7----|
 |-7--5h7-7-(7)-5-5--|-3-3-3-3-3--5-5-5-5-5----|
 |--------------3-3--|-------------------------|

[E5] [G5] [C5] [A5]  
 
 PM----| PM----|
 |-------------------|-----------------------|
 |-------------------|-----------------------|
 |-------------------|-----------------------|
 |-9-----------------|---------5----------2--|
 |-7--5h7-7-(7)-5-5--|-3-3-3-3-3--0-0-0-0-0--|
 |--------------3-3--|-----------------------|

[E5] [G5] [C5] [G5]  
 
 PM----| PM--------|
 |-------------------|---------------------------|
 |-------------------|---------------------------|
 |-------------------|---------------------------|
 |-9-----------------|---------5-----------------|
 |-7--5h7-7-(7)-5-5--|-3-3-3-3-3--0-0-0-0-0-0-5--|
 |--------------3-3--|------------------------3--|

Post-Solo Riff
[E5] [E5] PM--|
 
 |-----------------------|-----------------|
 |-----------------------|-----------------|
 |-----------------------|-----------------|
 |-----------------------|-----------------|
 |-2--x------------------|-2--x-2-x-2-2-2--|
 |-0--x-5p3-0h3-5p3-5b7--|-0--x-0-x-0-0-0--|

[E5] PM----|
 
 |-----------------------|--------------------|
 |-----------------------|--------------------|
 |-----------------------|--------------------|
 |-----------------------|--------------------|
 |-2--x------------------|-2--x-2-x-2-2-2-2-2-|
 |-0--x-5p3-0h3-5p3-5b7--|-0--x-0-x-0-0-0-0-0-|

[E5] [E5] PM--|
 
 |-----------------------|-----------------|
 |-----------------------|-----------------|
 |-----------------------|-----------------|
 |-----------------------|-----------------|
 |-2--x------------------|-2--x-2-x-2-2-2--|
 |-0--x-5p3-0h3-5p3-5b7--|-0--x-0-x-0-0-0--|

[E5] [E5] PM--|
 
 |-----------------------|------------------|
 |-----------------------|------------------|
 |-----------------------|------------------|
 |-----------------------|------------------|
 |-2--x------------------|-2--x-2-x-2-2-2---|
 |-0--x-5p3-0h3-5p3-5b7--|-0--x-0-x-0-0-0---|

[E5] [E5]  
 
 PM------------M---|
 |-------------|-------------|-------------|----------|------------|--------|
 |-------------|-------------|-------------|----------|------------|--------|
 |-------------|-------------|-------------|----------|------------|--------|
 |-------------|-------------|-------------|-9--------|-(9)--------|-(9)----|
 |------2-2-2--|------2-2-2--|------2-2-2--|-7--------|-(7)--------|-(7)----|
 |------0-0-0--|------0-0-0--|------0-0-0--|-0--------|-(0)--------|-(0)----|

|-----|
|-----|
|-----|
|-----|
|-----|
|-----|
Breakdown
 
 PM----------------------------------------------
 |-------------------------------------------------|
 |-------------------------------------------------|
 |-------------------------------------------------|
 |-------------------------------------------------|
 |-------------------------------------------------|
 |-13-12-12-12-12-12-12-12-13-12-12-12-13-15-13-12-|
 ----------------------------------------------|
 |-------------------------------------------------|
 |-------------------------------------------------|
 |-------------------------------------------------|
 |-------------------------------------------------|
 |-------------------------------------------------|
 |-13-12-12-12-12-12-12-12-13-12-12-12-13-15-13-12-|
 PM----------------------------------------------
 ||--------------------------------------------------|
 ||o-------------------------------------------------|
 ||--------------------------------------------------|
 ||--------------------------------------------------|
 ||o-------------------------------------------------|
 ||--13-12-12-12-12-12-12-12-13-12-12-12-13-15-13-12-|

|
| Gtr II
 
 | PM----------------------------------------------
 ||--------------------------------------------------|
 ||o-------------------------------------------------|
 ||--------------------------------------------------|
 ||--------------------------------------------------|
 ||o-------------------------------------------------|
 ||--13-12-12-12-12-12-12-12-13-12-12-12-13-15-13-12-|
 ----------------------------------------------|

3x
 
 |---------------------------------------------------||
 |--------------------------------------------------o||
 |---------------------------------------------------||
 |---------------------------------------------------||
 |--------------------------------------------------o||
 |-13-12-12-12-12-12-12-12-13-12-12-12-13-15-13-12---||

|
 
 |----------------------------------------------|

| 3x
 
 |---------------------------------------------------||
 |--------------------------------------------------o||
 |---------------------------------------------------||
 |---------------------------------------------------||
 |--------------------------------------------------o||
 |-13-12-12-12-12-12-12-12-13-12-12-12-13-15-13-12---||
 PM----------------------------------------
 ||--------------------------------------------|
 ||o-------------------------------------------|
 ||--------------------------------------------|
 ||--------------------------------------------|
 ||o-------------------------------------------|
 ||--13-12-0-0-0-0-0-0-13-12-12-12-13-15-13-12-|

|
 
 | PM----------------------------------------
 ||--------------------------------------------|
 ||o-------------------------------------------|
 ||--------------------------------------------|
 ||--------------------------------------------|
 ||o-------------------------------------------|
 ||--13-12-0-0-0-0-0-0-13-12-12-12-13-15-13-12-|
 ----------------------------------------|

4x
 
 |---------------------------------------------||
 |--------------------------------------------o||
 |---------------------------------------------||
 |---------------------------------------------||
 |--------------------------------------------o||
 |-13-12-0-0-0-0-0-0-13-12-12-12-13-15-13-12---||

|
 
 |----------------------------------------|

| 4x
 
 |---------------------------------------------||
 |--------------------------------------------o||
 |---------------------------------------------||
 |---------------------------------------------||
 |--------------------------------------------o||
 |-13-12-0-0-0-0-0-0-13-12-12-12-13-15-13-12---||

Gtrs I, II
 
 PM-------------------------------------
 ||-----------------------------------------|
 ||o----------------------------------------|
 ||-----------------------------------------|
 ||-----------------------------------------|
 ||o----------------------------------------|
 ||--13-12-0-12-13-0-10-12-0-8-10-0-7-8-5-0-|

|
| G
 
 ||-----------------------------------------|
 ||o----------------------------------------|
 ||-----------------------------------------|
 ||-----------------------------------------|
 ||o----------------------------------------|
 ||-----------------------------------------|
 --------------------------------------|
 |------------------------------------------||
 |-----------------------------------------o||
 |------------------------------------------||
 |------------------------------------------||
 |-----------------------------------------o||
 |-13-12-0-12-13-0-10-12-0-8-10-0-7-8-5-0---||

|
|tr II
 
 | PM----------------------------------|
 |------------------------------------------||
 |-----------------------------------------o||
 |------------------------------------------||
 |------------------------------------------||
 |-13-12-0-12-13-0-10-12-0-8-10-0-7-8-5-0--o||
 |------------------------------------------||

Chorus (Modified)
Gtrs I, II
~ PM| ~
 
 |--------------|---------------|------------------------|
 |--------------|---------------|------------------------|
 |--------------|---------------|------------------------|
 |--------------|---------------|------------------------|
 |-7-8-5---3-3--|-2--/7-5---2-4-|-5--/9-7-(7)-9-10-(10)\-|
 |-5-6-3---1-1--|-0---------0-2-|-3----------------------|

~~~~~~
 
 |---------------|------------------------|
 |---------------|------------------------|
 |---------------|------------------------|
 |---------------|------------------------|
 |-10--10-9---9--|-12--12-9--10-9h10p9-7--|
 |--8------------|-10---------------------|

~ PM| ~ ~~~~~~
 
 |---------------|------------------------|--------------|------------------|
 |---------------|------------------------|--------------|------------------|
 |---------------|------------------------|--------------|------------------|
 |---------------|------------------------|--------------|-----5----------7-|
 |-2--/7-5---2-4-|-5--/9-7-(7)-9-10-(10)\-|-7--/7-5---5--|---5-----10---7---|
 |-0---------0-2-|-3----------------------|-5------------|-3-----8----5-----|

Outro
 
 PM------------------------------------------------------|
 ||------------------------------|------------------------------|
 ||o-----------------------------|------------------------------|
 ||------------------------------|------------------------------|
 ||------------------------------|------------------------------|
 ||o-7-7-7--7--7-7--7-7--7-7-7-7-|-5-5-5--5--5-5--5-5--5-5-5-5--|
 ||--0-0-0--0--0-0--0-0--0-0-0-0-|-0-0-0--0--0-0--0-0--0-0-0-0--|
 PM---------------------------------------------| ~
 |-----------------------------|----------------------------||
 |-----------------------------|---------------------------o||
 |-----------------------------|----------------------------||
 |-----------------------------|----------------------------||
 |-1-1-1--1--1-1--1-1--1-1-1-1-|-2-2-2--2--2-2--2-2--------o||
 |-0-0-0--0--0-0--0-0--0-0-0-0-|-0-0-0--0--0-0--0-0--3h5-5--||
 |-----------------------------------------|
 |-----------------------------------------|
 |-----------------------------------------|
 |-----------------------------------------|
 |-7-7-7-(7)-7-(7)-7-7-(7)-7-7-(7)-7-7-7-7-|
 |-0-0-0-(0)-0-(0)-0-0-(0)-0-0-(0)-0-0-0-0-|
 |-----------------------------------------|
 |-----------------------------------------|
 |-----------------------------------------|
 |-----------------------------------------|
 |-9-9-9-(9)-9-(9)-9-9-(9)-9-9-(9)-9-9-9-9-|
 |-0-0-0-(0)-0-(0)-0-0-(0)-0-0-(0)-0-0-0-0-|
 |---------------------------------------------------------|
 |---------------------------------------------------------|
 |---------------------------------------------------------|
 |---------------------------------------------------------|
 |-10-10-10-(10)-10-(10)-10-10-(10)-10-10-(10)-10-10-10-10-|
 |--8--8--8--(8)--8--(8)--8--8--(8)--8--8--(8)--8--8--8--8-|

~
 
 |---------------------------------------------------|
 |---------------------------------------------------|
 |---------------------------------------------------|
 |---------------------------------------------------|
 |-10-10-10-(10)-10-(10)-10--9--(9)--9--9--(9)-------|
 |-10-10-10-(10)-10-(10)-10-10-(10)-10-10-(10)-5h7-7-|
 |-----------------------------------------|
 |-----------------------------------------|
 |-----------------------------------------|
 |-----------------------------------------|
 |-7-7-7-(7)-7-(7)-7-7-(7)-7-7-(7)-7-7-7-7-|
 |-0-0-0-(0)-0-(0)-0-0-(0)-0-0-(0)-0-0-0-0-|
 |-----------------------------------------|
 |-----------------------------------------|
 |-----------------------------------------|
 |-----------------------------------------|
 |-9-9-9-(9)-9-(9)-9-9-(9)-9-9-(9)-9-9-9-9-|
 |-0-0-0-(0)-0-(0)-0-0-(0)-0-0-(0)-0-0-0-0-|
 |---------------------------------------------------------|
 |---------------------------------------------------------|
 |---------------------------------------------------------|
 |---------------------------------------------------------|
 |-10-10-10-(10)-10-(10)-10-10-(10)-10-10-(10)-10-10-10-10-|
 |--8--8--8--(8)--8--(8)--8--8--(8)--8--8--(8)--8--8--8--8-|

~
 
 |---------------------------------------------------|
 |---------------------------------------------------|
 |---------------------------------------------------|
 |---------------------------------------------------|
 |-10-10-10-(10)-10-(10)-10--9--(9)--9--9--(9)-----5-|
 |-10-10-10-(10)-10-(10)-10-10-(10)-10-10-(10)-3h5---|

PM
 
 |------------*|
 |------------*|
 |------------*|
 |------------*|
 |-2--x-2-----*|
 |-0--x-0-----*|

Tablature Legend
 
 ----------------

h - hammer-on
p - pull-off
b - bend
pb - pre-bend
r - bend release (if no number after the r, then release immediately)
/\ - slide into or out of (from/to "nowhere")
s - legato slide
S - shift slide
<n> - natural harmonic
(n) - artificial harmonic
n(n) - tapped harmonic
~ - vibrato
tr - trill
T - tap
TP - trem. picking
PM - palm muting
\n/ - tremolo bar dip; n = amount to dip
\n - tremolo bar down
n/ - tremolo bar up
/n\ - tremolo bar inverted dip
= - hold bend; also acts as connecting device for hammers/pulls
<> - volume swell (louder/softer)
x - on rhythm slash represents muted slash
o - on rhythm slash represents single note slash
Misc Legend
 
 -----------

| - bar
|| - double bar
||o - repeat start
o|| - repeat end
*| - double bar (ending)
: - bar (freetime)
$ - Segno
& - Coda
Tempo markers - <E/E./Q/Q./H/H.> = BPM(8/16=s8/s16), where s8 = swing 8ths, s16 = swing 16ths

Important: The song above is NOT stored on the Chordie server. The original song is hosted at www.azchords.com. Chordie works as a search engine and provides on-the-fly formatting. Chordie does not index songs against artists'/composers' will. To remove this song please click here.

Text color:
Chord color:
Chord grids: 
Font size:    
Page size: 

A5 C C5 D5 D5/A Dsus2/E E E5 Esus2 F#5 G5 G5/D
Rate #2 of 2 versions

Jango Player

Login - add to songbook

SHARE PAGE  




You need to log in to post comments