Guitar Tabs, Chords and Lyrics
Major upgrade!! After one year development the new version of Chordie is now online! Please give feedback.


Blow Out  Radiohead

This is the acoustic version played by
Thom Yorke with Posies.
Standard tunning. No capo. (See below for chords.)
Intro:
[-----]Emadd9(*) x4
Verse:
 
 ------

Emadd9(*)
In my mind
And nailed into my [G]hee[Asus2]ls[G] [Asus2]
Emadd(*)
All the time
Killing what I [G]fee[Asus2]l[G] [Asus2]
Emadd(*)
And everything I touch
turns to [G]st[-]on[Asus2]e.[G] [-] [Asus2]
Emadd(*)
And everything I touch
turns to [G]sto[Asus2]ne.[G] [Asus2]
Bridge:
 
 -------

[Amaj7]Amaj7 [Am7]Am7 [Am6]Am6 [A]A x2
Verse:
 
 ------

Emadd9(*)
I am fused
Just in case I [G]blo[-]w [Asus2]out[G] [-] [Asus2]
Emadd(*)
I am glued
Just in case I [G]cra[-]ck [Asus2]out[G] [-] [Asus2]
Emadd(*)
And everything I touch
turns to [G]st[-]on[Asus2]e.[G] [-] [Asus2]
Emadd(*)
And everything I touch
turns s[G]to[-]ne[Asus2].[G] [-] [Asus2]
Outro:
 
 ------

Emadd(*)
Everything I touch
turns s[G]tone.[Asus2]
******
CHORDS
******
Intro + Verse:
 
 --------------

* indicates variation
Emadd9(*)
 
 E|--x-----0---0---0---0---0--|
 B|--7-----7---7---7---7---7--|
 G|--0-----0---0---0---0---0--|
 D|--------0---0---0---0---0--|
 A|--9------------------------|
 E|--0-----10--9---10--9---10-|

^ ^
|________________|
Variation
[G] [Asus2]  
 
 E|-(0)- -(3)- E|--0--
 B|--0-- -(3)- B|--0--
 G|--0-- or --0-- G|--2--
 D|--0-- --0-- D|--2--
 A|----- ----- A|--0--
 E|--3-- --3-- E|-----

Bridge:
 
 -------

[Amaj7] [Am7] [Am6] [A]  
 
 E|---0----0----0----0----|
 B|---9----8----7----5----|
 G|-----------------------|
 D|--11---10---10----7----|
 A|---0----0----0----0----|
 E|-----------------------|


Important: The song above is NOT stored on the Chordie server. The original song is hosted at www.azchords.com. Chordie works as a search engine and provides on-the-fly formatting. Chordie does not index songs against artists'/composers' will. To remove this song please click here.

Text color:
Chord color:
Chord grids: 
Font size:    
Page size: 

A Am6 Am7 Amaj7 Asus2 G
Rate #1 of 9 versions

Jango Player

Login - add to songbook

SHARE PAGE  




You need to log in to post comments