Guitar Tabs, Chords and Lyrics
Major upgrade!! After one year development the new version of Chordie is now online! Please give feedback.


Separator  Radiohead

[E7] [Dsus2]  
 
 E|------0-----0-----0-0-0-0-|---0---------------------------|
 B|------0-----0-----0-0-0-0-|---3--3------------------------|
 G|------1-----1-----2-1-2-1-|---2--2--4h6--4--2--2h4p2--0---|
 E|------0--0--------0-0-0-0-|---0--0--0----0--0--0------0---|
 A|---2-----2----2-----------|-0----0------------------------|
 E|---0-----0----0-----------|-0-----------------------------|

In the live versions performed in 2016, this part is actually simplified. Thom replaces
the final lick with a F# on the bass:
[E7] [Dsus2] [Dsus2/F#]  
 
 E|------0-----0-----0-0-0-0-|---0--------0-----0--0---|
 B|------0-----0-----0-0-0-0-|---3--3-----3-----3--3---|
 G|------1-----1-----2-1-2-1-|---2--2-----2-----2--2---|
 E|------0--0--------0-0-0-0-|---0--0--0--0-----0--0---|
 A|---2-----2----2-----------|-0----0--0-----0--0------|
 E|---0-----0----0-----------|-0-------2-----2---------|

During the final part (right before "when at last you give in"), Thom strums a sequence
of four new shapes that mimic the chromatic melody played by Ed:
[E] [Emaj7] [Asus4] [A]  
 
 E|---0---|----0---|----0---|----0----|
 B|---5---|----4---|----3---|----2----|
 G|---4---|----4---|----2---|----2----|
 E|---0---|----0---|----0---|----0----|
 A|---2---|----2---|----0---|----0----|
 E|---0---|----0---|----0---|----0----|

The last chord is another E7:
[E7]  
 
 E|---0---|
 B|---0---|
 G|---1---|
 E|---0---|
 A|---2---|
 E|---0---| 


Important: The song above is NOT stored on the Chordie server. The original song is hosted at www.azchords.com. Chordie works as a search engine and provides on-the-fly formatting. Chordie does not index songs against artists'/composers' will. To remove this song please click here.

Text color:
Chord color:
Chord grids: 
Font size:    
Page size: 

A Asus4 Dsus2 Dsus2/F# E E7 Emaj7
Rate #1 of 7 versions

Jango Player

Login - add to songbook

SHARE PAGE  




You need to log in to post comments