Guitar Tabs, Chords and Lyrics
Major upgrade!! After one year development the new version of Chordie is now online! Please give feedback.


Stop Whispering  Radiohead

(Intro and verse) Just guitar 1:
 
 e|----------------------------------------------------------------------------------|
 B|-3--3-3------3-----3--------------------------------------------------------------|
 G|-2---2----0--0---0---0------------------------------------------------------------|
 D|-0------4----0--------------------------------------------------------------------|
 A|-0-----------x--------------------------------------------------------------------|
 E|-------------3--------------------------------------------------------------------|

"And they're..." (G2)
 
 e|------0-----------0------------------------------------|
 B|--------3-----------2----------------------------------|
 G|----2-----2-----0-----0------plays also in the chorus--|
 D|--0----------------------------------------------------|
 A|-------------------------------------------------------|
 E|---------------3---------------------------------------|

(Chorus) G1 At the end of the chorus G3:
 
 e|--------------------- --------------|
 B|--3----3------------- --3 let ring--|
 G|--2----0------------- --------------|
 D|--0----0------------- --------------|
 A|--0----x------------- --------------|
 E|-------3------------- --------------|

Repeat the verse and chorus
Then:
[G1] [and] [3]  
 
 e|-------------------------------------------------------------------------------|
 B|-3----3------------------------------------------------------------------------|
 G|-2----0------------------------------------------------------------------------|
 D|-0----0------------------------------------------------------------------------|
 A|-0----x------------------------------------------------------------------------|
 E|------3------------------------------------------------------------------------|

G2 (4 times)
 
 e|---------------------------------------------------------------------------------|
 B|--17--15--14----12---------------10----------------------------------------------|
 G|-------------14----12-12-11--12------11--12-------listen to the song for timing--|
 D|---------------------------------------------------------------------------------|
 A|---------------------------------------------------------------------------------|
 E|---------------------------------------------------------------------------------|

"Dear sir..." G1 G2
 
 e|---------------------- -------0---------0--------------------------------------|
 B|---3------3------------ ---------3---------3------------------------------------|
 G|---2------0------------ -----2---------0----------------------------------------|
 D|---0------0------------ ----0---------------------------------------------------|
 A|---0------x------------ --------------------------------------------------------|
 E|----------3------------ -------------3------------------------------------------|

"Doesn't matter anyway" G1
 
 e|--------------------------------------------------------------------------------|
 B|----3----3--3-------------------------------------------------------------------|
 G|----2----0--0-------------------------------------------------------------------|
 D|----0----4--5-------------------------------------------------------------------|
 A|----0----5--5-------------------------------------------------------------------|
 E|--------------------------------------------------------------------------------|

G2 and 3 (heavy)
 
 e|-------------------------------------------------------------------------------|
 B|--------------------------3---3------------------------------------------------|
 G|--------------------------2---0------------------------------------------------|
 D|--------------------------0---0------------------------------------------------|
 A|--------------------------0---x------------------------------------------------|
 E|------------------------------3------------------------------------------------|

"Stop Whispering..." G1 and 2 G3
 
 e|------------------------------------- ---------------------------------------------|
 B|-------3-----3----------------------- ---------------------------------------------|
 G|-------2-----0----------------------- -----14b16br---------------------------------|
 D|-------0-----0----------------------- ---------------------------------------------|
 A|-------0-----x----------------------- ---------------------------------------------|
 E|----4b-------3----------------------- ---------------------------------------------|

(Outro) G1
 
 e|-------------------------------------------------------------------------------|
 B|--3-----3----------------------------------------------------------------------|
 G|--2-----0----------------------------------------------------------------------|
 D|--0-----0----------------------------------------------------------------------|
 A|--0-----x----------------------------------------------------------------------|
 E|--------3----------------------------------------------------------------------|

[G2]  
 
 e|---------------------------------------------------------------------------------|
 B|--17--15--14----12---------------10----------------------------------------------|
 G|-------------14----12-12-11--12------11--12-------listen to the song for timing--|
 D|---------------------------------------------------------------------------------|
 A|---------------------------------------------------------------------------------|
 E|---------------------------------------------------------------------------------|

[G3]  
 
 e|--------------------------------------------------------------------------------|
 B|--------------------------------------------------------------------------------|
 G|---11---12----------------------------------------------------------------------|
 D|---x----x-----------------------------------------------------------------------|
 A|---9----10----------------------------------------------------------------------|
 E|--------------------------------------------------------------------------------| 


Important: The song above is NOT stored on the Chordie server. The original song is hosted at www.azchords.com. Chordie works as a search engine and provides on-the-fly formatting. Chordie does not index songs against artists'/composers' will. To remove this song please click here.

Text color:
Chord color:
Chord grids: 
Font size:    
Page size: 

G2 G3
Rate #1 of 2 versions

Login - add to songbook

SHARE PAGE  




You need to log in to post comments