Guitar Tabs, Chords and Lyrics
Login is temporarily disabled for some users. Do not panic. Will be back in an hour or two. DO NOT REREGISTER!!


Desperation  Rage

Rage, Desperation.
 
 ------Desperation------

by Rage
Intro
|arpeggio |
Dm v v
 
 |------------|------------|
 |-3--3-------|-3--3-------|
 |----2-------|----2-------|
 |----0-------|----0-------|
 |----0-------|----0-------|
 |----0-------|----0-------|

[Dm/E] [Am/G] [Dm/G] [Am/G] [Dm/F] [Am/G]  
 
 |----------------------------|-----------------------|-----------------|
 |----------------------1-----|-----------------------|---------------1-|
 |-------2----2-------0-------|------2--------------0-|-------2-----0---|
 |-----0----0---0---2---------|----0----0---------2---|-----0-----------|
 |---0------------0-----------|--0--------------0-----|---0-------0-----|
 |-0--------------------------|3----------3\1p0-------|-1-------3-------|

Verse (riff A)
[Dm/E] [Am/G] [Dm/G] [Am/G] [Dm/FAm/G]  
 
 |-------------------------------|-------------------------------|
 |----------------------1--------|-----------------------------1-|
 |-------2----2-------0----------|-------2------------0----2---0-|
 |-----0----0---0---2------------|-----0-----0------2------0-----|
 |---0------------0--------------|---0------------0--------------|
 |-0-----------------------------|-3------------0--------1---3---|

Oh can't you tell me what makes... ..way
riff B
 
 |------------------|-----------------|
 |------------P.H.--|-----------------|
 |--------------5---|-----3-----------|
 |-------------(3)--|-------5-----7---|
 |-3-3-3-3-2-2------|-3-5-----2-2-5---|
 |-1-1-1-1-0-0------|---------0-0-----|

PM. . . . . . . .
before 1st chorus (Z)
 
 |-----------------|
 |-----------------|
 |-----------------|
 |-----------------|
 |-7-7-7-7-7-7-7-7-|
 |-5-5-5-5-5-5-5-5-|

PM. . . . . . . .
Chorus (riff C1)
 
 |------------|------------|
 |------------|------------|
 |------------|------------|
 |------------|------------| (3xC1 + 2xA)
 |3-----5-----|3-----2-----|
 |5---556---66|5---553---33|

PM .. .. .. ..
riff C2
 
 |-----------------|----------------|----------------|--------------|
 |-----------------|----------------|----------------|--------------|
 |-----------------|----------------|----------------|--------------|
 |-----------------|----------------|----------------|--------------|
 |-7------------(7)|8------------(8)|7------------(7)|5----------(5)|
 |-5-5-5-5-5-5-5-5-|6-6-6-6-6-6-6-6-|5-5-5-5-5-5-5-5-|3-3-3-3-3-3-3-|

PM . . . . . . . . . . . . . . . . . . . . . . . . . . . .
then C3
 
 |-------------|
 |-------------|
 |-------------|
 |-3-----5-----|
 |-3-----5-----|
 |-1-----3-----|

Solo in Dm
Outro riff D
 
 |-----------------|----------------|
 |-----------------|----------------|
 |-----------------|----------------|
 |-4-4-4-6-6-6\----|7-7-7-6-6-6\----|
 |-5-5-5-7-7-7\----|8-8-8-7-7-7\----|
 |-3-3-3-5-5-5\----|6-6-6-5-5-5\----|

PM . .
Song structure
Intro
Verse1 Ax2
Bx4
Verse2 Ax4 + Zx1
Chorus C1x3
Bx2
C2x2
C3x2
verse3 Ax2
Chorus C1x3
Bx1
C1x3
Bx2
solo (Dm)
Chorus(mod.)
C1x1
Bx1
C1x1
Bx1
C1x2
Bx2
pause (1 measure)
outro D->fade out
Please send me all comments or corrections you eventually have.
There may be inacuracies especially in some distorted parts, as I have
only accoustic guitar available now. The pinch harmonics in the main
riff can be wrong too, because I havn't possibility of testing how it sounds
on an amplyfier. I would appreciate anyone tabbing the solo.

Important: The song above is NOT stored on the Chordie server. The original song is hosted at www.azchords.com. Chordie works as a search engine and provides on-the-fly formatting. Chordie does not index songs against artists'/composers' will. To remove this song please click here.

Text color:
Chord color:
Chord grids: 
Font size:    
Page size: 

Dm/E Dm/F
Rate #1 of 4 versions

Jango Player

Login - add to songbook

SHARE PAGE  



You need to log in to post comments