Guitar Tabs, Chords and Lyrics
Major upgrade!! After one year development the new version of Chordie is now online! Please give feedback.


Maggieâ??s Farm   Rage Against the Machine

 
 E--12-------|--12-------|--12-------|--12-------|
 B------12---|------12---|------12---|------12---|
 G-----------|-----------|-----------|-----------|
 D-----------|-----------|-----------|-----------|
 A-----------|-----------|-----------|-----------|
 B-----------|-----------|-----------|-----------|
 E--10-------|--10-------|--10-------|--10-------|
 B------12---|------12---|------12---|------12---|
 G-----------|-----------|-----------|-----------|
 D-----------|-----------|-----------|-----------|
 A-----------|-----------|-----------|-----------|
 B-----------|-----------|-----------|-----------|

 


 


 Riff 2 [x4]


 Gtr. 1 & 2


 


 

 
 E-----------|-----------|-----------|-----------|
 B-----------|-----------|-----------|-----------|
 G-----------|-----------|-----------|-----------|
 D-----------|-----------|-----------|-----------|
 A-----------|-----------|-----------|-----------|
 Bâ??18/--0-0--|-3p0--0--0-|--0â??3p0----|-----5-----|
 E-----------|-----------|-----------|------------|
 B-----------|-----------|-----------|------------|
 G-----------|-----------|-----------|------------|
 D-----------|-----------|--------0--|------------|
 A-----------|-----------|--0--2-----|--2--0------|
 B--0---0----|-3p0--0--0-|-----------|-------5--3-|

 


 


 Verse


 Gtr. 1


 Riff 3 [x8]


 Palm Mute


 


 

 
 E-----------|-----------|-----------|-----------|
 B-----------|-----------|-----------|-----------|
 G-----------|-----------|-----------|-----------|
 D-----------|-----------|-----------|-----------|
 A-----------|-----------|-----------|-----------|
 B--0---0----|-3p0--0--0-|--0â??3p0----|--x--5-----|
 E-----------|-----------|-----------|-----------|
 B-----------|-----------|-----------|-----------|
 G-----------|-----------|-----------|-----------|
 D-----------|-----------|-----------|-----------|
 A-----------|-----------|-----------|-----------|
 Bâ??---0--0---|---3p0-----|--0---0----|-----------|

 


 


 


 


 Gtr 2


 Fill [x2]


 


 

 
 E-----------|-----------|-----------|-----------|
 B-----------|-----------|-----------|-----------|
 G-----------|---2-------|-----------|-----------|
 D-----------|---2-------|-----------|-----------|
 A-----------|-----------|-----------|-----------|
 B---0---0---|-----------|-----------|-----------|
 E-----------|-----------|-----------|-----------|
 B-----------|-----------|-----------|-----------|
 G-----------|-----------|-----------|-----------|
 D-----------|-----------|-----------|-----------|
 A-----------|---2-------|-----------|-----------|
 B---0---0---|---5-------|-----------|-----------|

 


 


 Riff 4 [x4]


 


 

 
 E-----------|-----------|-----------|-----------|
 B-----------|-----------|-----------|-----------|
 G-----------|-----------|-----------|-----------|
 D-----------|-----------|-----------|-----------|
 A-----------|-----------|-----------|-----------|
 B---0---0---|--x--x--0--|--x--x--0--|--x-x-x-x--|

 


 


 Riff 5 [x4]


 


 

 
 E-----------|-----------|-----------|-----------|
 B-----------|-----------|-----------|-----------|
 G-----------|-----------|-----------|-----------|
 D-----------|-----------|-----------|-----------|
 A-----------|-----------|-----------|-----------|
 B--0---0----|-3p0--0--0-|--0â??3p0----|---x--5----|

 


 


 Chorus


 Riff 6 [x2]


 


 

 
 E-----------|-----------|-----------|-----------|
 B-----------|-----------|-----------|-----------|
 G-----------|-----------|-----------|-----------|
 D-----------|-----------|-----------|-----------|
 A--12---12--|--12---12--|--12---12--|--12---12--|
 B--10---10--|--10---10--|--10---10--|--10---10--|
 E-----------|-----------|-----------|-----------|
 B-----------|-----------|-----------|-----------|
 G-----------|-----------|-----------|-----------|
 D-----------|-----------|-----------|-----------|
 A--\7---7---|---7---7---|---7---7---|---7---7---|
 B--\5---5---|---5---5---|---5---5---|---5---5---|

 


 


 Riff 7 [x2]


 


 

 
 E-----------|-----------|------------|-----------|
 B-----------|-----------|------------|-----------|
 G-----------|-----------|------------|-----------|
 D-----------|-----------|------------|-----------|
 A-----------|-----------|------------|-----------|
 B-0-0--x--x-|--0-x--x-0-|-x--x--xâ??x--|-----------|
 E-----------|-----------|-----------|-----------|
 B-----------|-----------|-----------|-----------|
 G-----------|-----------|-----------|-----------|
 D-----------|-----------|-----------|-----------|
 A--12---12--|--12---12--|--12---12--|--12---12--|
 B--10---10--|--10---10--|--10---10--|--10---10--|
 E-----------|-----------|-----------|-----------|
 B-----------|-----------|-----------|-----------|
 G-----------|-----------|-----------|-----------|
 D-----------|-----------|-----------|-----------|
 A--\7---7---|---7---7---|---7---7---|---7---7---|
 B--\5---5---|---5---5---|---5---5---|---5---5---|
 E-----------|-----------|-----------|-----------|
 B-----------|-----------|-----------|-----------|
 G-----------|-----------|-----------|-----------|
 D-----------|-----------|-----------|-----------|
 A-----------|-----------|-----------|-----------|
 B---0-------|-----------|-----------|----19/----|

 


 ____________________________________________________________________


 


 Interlude


 [Riff B x2] 


 


 

 
 E-----------|-----------|-----------|-----------|
 B-----------|-----------|-----------|-----------|
 G-----------|-----------|-----------|-----------|
 D-----------|-----------|-----------|-----------|
 A-----------|-----------|-----------|-----------|
 B--0---0----|-3p0--0--0-|--0â??3p0----|-----5-----|
 E-----------|-----------|-----------|------------|
 B-----------|-----------|-----------|------------|
 G-----------|-----------|-----------|------------|
 D-----------|-----------|--------0--|------------|
 A-----------|-----------|--0--2-----|--2--0------|
 B--0---0----|-3p0--0--0-|-----------|-------5--3-|

 


 


 Gtr. 2 Fill x2


 


 Pre bend, strike then release:


 


 

 
 E-----------|-----------|-----------|-----------|
 B-----------|-----------|-----------|-----------|
 G-----------|-----------|-----------|-----------|
 D----^9-----|-----------|-----------|-----------|
 A-----------|-----------|-----------|-----------|
 B-----------|-----------|-----------|-----------|

 


 


 Verse 2


 Gtr. 1


 Riff 3 [x8]


 Palm Mute


 


 

 
 E-----------|-----------|-----------|-----------|
 B-----------|-----------|-----------|-----------|
 G-----------|-----------|-----------|-----------|
 D-----------|-----------|-----------|-----------|
 A-----------|-----------|-----------|-----------|
 B--0---0----|-3p0--0--0-|--0â??3p0----|-----5-----|
 E-----------|-----------|-----------|-----------|
 B-----------|-----------|-----------|-----------|
 G-----------|-----------|-----------|-----------|
 D-----------|-----------|-----------|-----------|
 A-----------|-----------|-----------|-----------|
 Bâ??---0--0---|---3p0-----|--0---0----|-----------|

 


 


 Gtr 2


 Fill [x2]


 


 

 
 E-----------|-----------|-----------|-----------|
 B-----------|-----------|-----------|-----------|
 G-----------|---2-------|-----------|-----------|
 D-----------|---2-------|-----------|-----------|
 A-----------|-----------|-----------|-----------|
 B---0---0---|-----------|-----------|-----------|
 E-----------|-----------|-----------|-----------|
 B-----------|-----------|-----------|-----------|
 G-----------|-----------|-----------|-----------|
 D-----------|-----------|-----------|-----------|
 A-----------|---2-------|-----------|-----------|
 B---0---0---|---5-------|-----------|-----------|

 


 


 


 Riff 4 [x4]


 


 

 
 E-----------|-----------|-----------|-----------|
 B-----------|-----------|-----------|-----------|
 G-----------|-----------|-----------|-----------|
 D-----------|-----------|-----------|-----------|
 A-----------|-----------|-----------|-----------|
 B---0---0---|--x--x--0--|--x--x--0--|--x-x-x-x--|

 


 


 Riff 5 [x4]


 


 

 
 E-----------|-----------|-----------|-----------|
 B-----------|-----------|-----------|-----------|
 G-----------|-----------|-----------|-----------|
 D-----------|-----------|-----------|-----------|
 A-----------|-----------|-----------|-----------|
 B--0---0----|-3p0--0--0-|--0â??3p0----|---x--5----|

 


 


 Chorus


 Riff 6 [x2]


 


 

 
 E-----------|-----------|-----------|-----------|
 B-----------|-----------|-----------|-----------|
 G-----------|-----------|-----------|-----------|
 D-----------|-----------|-----------|-----------|
 A--12---12--|--12---12--|--12---12--|--12---12--|
 B--10---10--|--10---10--|--10---10--|--10---10--|
 E-----------|-----------|-----------|-----------|
 B-----------|-----------|-----------|-----------|
 G-----------|-----------|-----------|-----------|
 D-----------|-----------|-----------|-----------|
 A--\7---7---|---7---7---|---7---7---|---7---7---|
 B--\5---5---|---5---5---|---5---5---|---5---5---|
 E-----------|-----------|------------|-----------|
 B-----------|-----------|------------|-----------|
 G-----------|-----------|------------|-----------|
 D-----------|-----------|------------|-----------|
 A-----------|-----------|------------|-----------|
 B-0-0--x--x-|--0-x--x-0-|-x--x--xâ??x--|-----------|
 E-----------|-----------|-----------|-----------|
 B-----------|-----------|-----------|-----------|
 G-----------|-----------|-----------|-----------|
 D-----------|-----------|-----------|-----------|
 A--12---12--|--12---12--|--12---12--|--12---12--|
 B--10---10--|--10---10--|--10---10--|--10---10--|
 E-----------|-----------|-----------|-----------|
 B-----------|-----------|-----------|-----------|
 G-----------|-----------|-----------|-----------|
 D-----------|-----------|-----------|-----------|
 A--\7---7---|---7---7---|---7---7---|---7---7---|
 B--\5---5---|---5---5---|---5---5---|---5---5---|
 E-----------|-----------|-----------|-----------|
 B-----------|-----------|-----------|-----------|
 G-----------|-----------|-----------|-----------|
 D-----------|-----------|-----------|-----------|
 A-----------|-----------|-----------|-----------|
 B---0-------|-----------|-----------|-----------|

 


 


 ____________________________________________________________________________________


 


 Guitar Solo


 Gtr. 2


 Tremolo pick throughout


 


 

 
 E-----------|-----------|-----------|-----------|
 B-----------|-----------|-----------|-----------|
 G-4--4--4--4|-4--4--4--4|-4--4--4--4|-4--4--4--4|
 D-----------|-----------|-----------|-----------|
 A-----------|-----------|-----------|-----------|
 B-----------|-----------|-----------|-----------|

 


 


 Riff 8 [x4]


 Gtr. 1


 Tremolo Arm; Pull up one step, strike string, release:


 


 

 
 E-----------|-----------|-----------|-----------|
 B-----------|-----10tr--|-----------|-----------|
 G-----------|-----------|-----------|-----------|
 D-----------|-----------|-----------|-----------|
 A-----------|-----------|-----------|-----------|
 B-----0-----|-----------|-----------|-----------|

 


 


 Riff 9


 w/ DigiTech Whammy Pedal (set 5 steps above)


 Strike, compress pedal then return


 


 

 
 E-----------|-----------|-----------|-----------|
 B--10-^-10--|-----------|--10-^-10--|-----------|
 G-----------|-----------|-----------|-----------|
 D-----------|-----------|-----------|-----------|
 A-----------|-----------|-----------|-----------|
 B-----------|-----------|-----------|-----------|

 


 


 (Bend string and compress whammy pedal)


 |


 v


 

 
 E-----------|-----------|-----------|-----------|
 B--10-^-10--|--10-^-10--|--10b^---10|-----------|
 G-----------|-----------|-----------|-----------|
 D-----------|-----------|-----------|-----------|
 A-----------|-----------|-----------|-----------|
 B-----------|-----------|-----------|-----------|

 


 


 Donâ??t have a whammy pedal? You can play it like this:


 


 

 
 E-----------|-----------|-----------|-----------|
 B-10-h12--10|-----------|-10-h12--10|-----------|
 G-----------|-----------|-----------|-----------|
 D-----------|-----------|-----------|-----------|
 A-----------|-----------|-----------|-----------|
 B-----------|-----------|-----------|-----------|
 E-----------|-----------|---12------|-----------|
 B-10-h12--10|-12â??10-----|--------10-|-----------|
 G-----------|-----------|-----------|-----------|
 D-----------|-----------|-----------|-----------|
 A-----------|-----------|-----------|-----------|
 B-----------|-----------|-----------|-----------|
 E-----------|-----------|-----------|-----------|
 B-10-h12--10|-----------|-10-h12--10|-----------|
 G-----------|-----------|-----------|-----------|
 D-----------|-----------|-----------|-----------|
 A-----------|-----------|-----------|-----------|
 B-----------|-----------|-----------|-----------|
 E-----------|-----------|-----------|-----------|
 B-10--12--10|-12---10---|---12---10-|-----------|
 G-----------|-----------|-----------|-----------|
 D-----------|-----------|-----------|-----------|
 A-----------|-----------|-----------|-----------|
 B-----------|-----------|-----------|-----------|

 


 Riff 1 [x4]


 


 

 
 E--12-------|--12-------|--12-------|--12-------|
 B------12---|------12---|------12---|------12---|
 G-----------|-----------|-----------|-----------|
 D-----------|-----------|-----------|-----------|
 A-----------|-----------|-----------|-----------|
 B-----------|-----------|-----------|-----------|
 E--10-------|--10-------|--10-------|--10-------|
 B------12---|------12---|------12---|------12---|
 G-----------|-----------|-----------|-----------|
 D-----------|-----------|-----------|-----------|
 A-----------|-----------|-----------|-----------|
 B-----------|-----------|-----------|-----------|

 


 


 Riff 9 [x2]


 


 

 
 E--12-------|--12-------|--12-------|-----------|
 B------12---|------12---|------12\--|-----------|
 G-----------|-----------|-----------|-----------|
 D-----------|-----------|-----------|-----------|
 A-----------|-----------|-----------|---x-7-----|
 B-----------|-----------|-----------|---x-5-----|
 E--10-------|--10-------|--10-------|-----------|
 B------12---|------12---|------12\--|-----------|
 G-----------|-----------|-----------|-----------|
 D-----------|-----------|-----------|-----------|
 A-----------|-----------|-----------|---x-7-----|
 B-----------|-----------|-----------|---x-5-----|
 E-----------|-----------|-----------|-----------|
 B-----------|-----------|-----------|-----------|
 G-----------|-----------|-----------|-----------|
 D-----------|-----------|-----------|-----------|
 A--12---12--|--12---12--|--12---12--|--12---12--|
 B--10---10--|--10---10--|--10---10--|--10---10--|
 E-----------|-----------|-----------|-----------|
 B-----------|-----------|-----------|-----------|
 G-----------|-----------|-----------|-----------|
 D-----------|-----------|-----------|-----------|
 A--\7---7---|---7---7---|---7---7---|---7---7---|
 B--\5---5---|---5---5---|---5---5---|---5---5---|
 E-----------|-----------|------------|-----------|
 B-----------|-----------|------------|-----------|
 G-----------|-----------|------------|-----------|
 D-----------|-----------|------------|-----------|
 A-----------|-----------|------------|-----------|
 B-0-0--x--x-|--0-x--x-0-|-x--x--xâ??x--|-----------|
 E-----------|-----------|-----------|-----------|
 B-----------|-----------|-----------|-----------|
 G-----------|-----------|-----------|-----------|
 D-----------|-----------|-----------|-----------|
 A--12---12--|--12---12--|--12---12--|--12---12--|
 B--10---10--|--10---10--|--10---10--|--10---10--|
 E-----------|-----------|-----------|-----------|
 B-----------|-----------|-----------|-----------|
 G-----------|-----------|-----------|-----------|
 D-----------|-----------|-----------|-----------|
 A--\7---7---|---7---7---|---7---7---|---7---7---|
 B--\5---5---|---5---5---|---5---5---|---5---5---|
 E-----------|-----------|-----------|-----------|
 B-----------|-----------|-----------|-----------|
 G-----------|-----------|-----------|-----------|
 D-----------|-----------|-----------|-----------|
 A-----------|-----------|-----------|-----------|
 B---0-------|-----------|-----------|-----------|

 


 


 Gtr 1 only [x2]


 


 

 
 E-----------|-----------|-----------|-----------|
 B-----------|-----------|-----------|-----------|
 G-----------|-----------|-----------|-----------|
 D-----------|-----------|-----------|-----------|
 A-----------|-----------|-----------|-----------|
 B--0---0----|-3p0--0--0-|--0â??3p0----|---x--5----|
 E-----------|-----------|-----------|-----------|
 B-----------|-----------|-----------|-----------|
 G-----------|-----------|-----------|-----------|
 D-----------|-----------|-------0---|-----------|
 A-----------|-----------|--0--2----2|--0--------|
 B--0---0----|-3p0--0--0-|-----------|-----5--3--|

 


 ^


 |


 Gtr.2 comes in HERE 2nd time round


 


 Outro


 Gtr. 1 & 2 until end


 


 

 
 E-----------|-----------|-----------|-----------|
 B-----------|-----------|-----------|-----------|
 G-----------|-----------|-----------|-----------|
 D-----------|-----------|-----------|-----------|
 A-----------|-----------|-----------|-----------|
 B--0---0----|-3p0--0--0-|--0â??3p0----|---x--5----|
 E-----------|-----------|-----------|-----------|
 B-----------|-----------|-----------|-----------|
 G-----------|-----------|-----------|-----------|
 D-----------|-----------|-------0---|-----------|
 A-----------|-----------|--0--2----2|--0--------|
 B--0---0----|-3p0--0--0-|-----------|-----5--3--|

 


 


 Pre-bend one step, strike and release:[repeat until end]


 


 

 
 E-----------|
 B-----------|
 G---^9------|
 D-----------|
 A-----------|
 B-----------| 

 


 


 Variation of outro


 


 

 
 E-----------|-----------|-----------|-----------|
 B-----------|-----------|-----------|-----------|
 G-----------|-----------|-----------|-----------|
 D-----------|-----------|-----------|-----------|
 A-----------|-----------|-----------|-----------|
 B--0---0----|-3p0--0--0-|--0â??3p0----|---x--5----|
 E-----------|-----------|-----------|-----------|
 B-----------|-----------|-----------|-----------|
 G-----------|-----------|-----------|-----------|
 D-----------|-----------|-----------|-----------|
 A-----------|-----------|---0-------|-----------|
 B--0---0----|-3p0--0----|-------3---|-----------|

 


 


 


 The following sounds over the top of the main riff are made by several guitars. You have to listen closely to get it right.


 


 Pre bend ½ step, strike, release [repeat several times]


 w/ reverb


 


 

 
 E-----------|
 B-----------|
 G-----------|
 D----^9v----|
 A-----------|
 B-----------|
 E-----------|------------|------------|-----------|
 B--^12--v---|------------|------------|-^12--v----|
 G--^14--v14-|-14--14--14-|-14--14--14-|-^14--v14--|
 D-----------|------------|------------|-----------|
 A-----------|------------|------------|-----------|
 B-----------|------------|------------|-----------|
 E-----------|
 B-----^10v--|
 G-----------|
 D-----------|
 A-----------|
 B-----------| 

 


 


 PB one step


 

 
 E-----------|-----------|
 B-----------|-----------|
 G-----------|-----------|
 D-----------|-----------|
 A--^9v------|----^7v----|
 B-----------|-----------|

 


 


 Finish on this chord:


 [PB ½ step, strike, release] 


 


 

 
 E-----------|
 B-----------|
 G----^9v----|
 D----^7v----|
 A-----------|
 B-----------|


Important: The song above is NOT stored on the Chordie server. The original song is hosted at www.azchords.com. Chordie works as a search engine and provides on-the-fly formatting. Chordie does not index songs against artists'/composers' will. To remove this song please click here.

This song is displayed as text-only. Transposing and tuning is only available for chordpro-songs.
Rate #1 of 2 versions

Jango Player

Login - add to songbook

SHARE PAGE  



You need to log in to post comments