Guitar Tabs, Chords and Lyrics
Update 25:10. 13:00. Site is back up running again. Songbooks are recovered. Woring on getting search back up..


Ariel  Rainbow

ARIEL
As recorded by Rainbow
(From the 1995 Album STRANGER IN US ALL)
Words and Music by Ritchie Blackmore, Paul Morris, Doogie White and Candice Night
C G Gopen F
x 3 5 5 5 x 3 5 5 4 3 3 3 2 0 0 0 3 1 3 3 2 1 1
Gtr I (E A D G B E) - 'Gtr I for dist gtr'
Gtr II (E A D G B E) - 'Gtr II for acoustic steel gtr'
Intro
[Am]  
Gtr I
 
 |---------------------------------|---------------------------------|
 |-5-----6-----3---5---------------|-5-----6-----3---5---------------|
 |-5-----7-----4---5---------------|-5-----7-----4---5---------------|
 |---------------------------------|---------------------------------|
 |---------------------------------|---------------------------------|
 |---------------------------------|---------------------------------|

|
| Gtr II
 
 |---------------------------------|---------------------------------|
 |---------------------------------|---------------------------------|
 |---------------------------------|---------------------------------|
 |---------------------------------|---------------------------------|
 |---------------------------------|---------------------------------|
 |-5-5-5-5-5-5-5-5-5-5-5-5-5-5-5-5-|-5-5-5-5-5-5-5-5-5-5-5-5-5-5-5-5-|
 |------------------------------------|
 |-5-----6-----3---5------------------|
 |-5-----7-----4---5------------------|
 |------------------------------------|
 |------------------------------------|
 |------------------------------------|

|
 
 |------------------------------------|
 |------------------------------------|
 |------------------------------------|
 |------------------------------------|
 |------------------------------------|
 |-5-5-5-5-5-5-5-5-5-5-5-5-5-5-5-5----|

[F#]  
 
 |---------------------------------||---------------|---------------|
 |-5-----6-----3---5---------------||-5---6--3-5----|-5---6--3-5----|
 |-5-----7-----4---5---------------||-5---7--4-5----|-5---7--4-5----|
 |---------------------------------||---------------|---------------|
 |---------------------------------||---------------|---------------|
 |---------------------------------||---------------|---------------|

|
 
 |---------------------------------||---------------|---------------|
 |---------------------------------||---------------|---------------|
 |---------------------------------||---------------|---------------|
 |---------------------------------||---------------|---------------|
 |---------------------------------||---------------|---------------|
 |-5-5-5-5-5-5-5-5-5-5-5-5-5-5-5-5-||---------------|---------------|

[B]  
 
 |------------------------|-------------------------|-------------------------|
 |------------------------|-------------------------|-------------------------|
 |---4-5---2-4------------|---4-5---2-4-----------2-|---4-5---2-4-------------|
 |-----------------1-2-4--|-----------------1-2-4---|-----------------1-2-4---|
 |-2-----2-----2-3--------|-2-----2-----2-3---------|-2-----2-----2-3---------|
 |------------------------|-------------------------|-------------------------|

|
 
 |------------------------|-------------------------|-------------------------|
 |------------------------|-------------------------|-------------------------|
 |------------------------|-------------------------|-------------------------|
 |------------------------|-------------------------|-------------------------|
 |------------------------|-------------------------|-------------------------|
 |------------------------|-------------------------|-------------------------|

[Em]  
 
 |---------------------------------|---------------------------------|
 |---------------------------------|---------------------------------|
 |---------------------------------|---------------------------------|
 |-----1-2-4-5-4-2-1-2-1-----------|---------------------------------|
 |-2-3-------------------3-2-3-0-2-|---------------------------------|
 |---------------------------------|-0-------------------------------|

|
 
 |---------------------------------|-------3-(3)-------------3-(3)-2-|
 |---------------------------------|-----0-------0---0-----0---------|
 |---------------------------------|---0-----------0-----0-----------|
 |---------------------------------|-2-----------------2-------------|
 |---------------------------------|---------------------------------|
 |---------------------------------|---------------------------------|
 |----------------------------------||
 |----------------------------------||
 |----------------------------------||
 |----------------------------------||
 |----------------------------------||
 |----------------------------------||

|
 
 |-------3-(3)-------------3-(3)-2--||
 |-----0-------0---0-----0----------||
 |---0-----------0-----0------------||
 |-2-----------------2--------------||
 |----------------------------------||
 |----------------------------------||

Verse
[Em] [C] [Em] [C] [B]  
 
 |-----0---------------------------|-----0----------------------|
 |---------------------------------|----------------------------|
 |---------------------------------|----------------------------|
 |---------------------------------|----------------------------|
 |---------------------------------|-----------------3-------2--|
 |-0-0-----------------------------|-0-0------------------------|

|
 
 |---------0---------------0-------|---------0-------------0----|
 |-----0-----0---0-----1-----1---1-|-----0-----0---0-----1------|
 |---0---0-----0-----0---0-----0---|---0---0-----0-----0--------|
 |-2-------------------------------|-2--------------------------|
 |-----------------3---------------|-----------------3-------2--|
 |---------------------------------|----------------------------|

[Em] [F]  
 
 |-----0-----------------------------|
 |-----------------------------------|
 |-----------------------------------|
 |-----------------------------------|
 |-----------------------------------|
 |-0-0-------------------------------|

|
 
 |---------0---------------1---------|
 |-----0-----0---0-----1-----1-------|
 |---0---0-----0-----2---2-----2-----|
 |-2---------------3-------------3---|
 |-----------------------------------|
 |-----------------------------------|

[Em]  
 
 |-----0----------------------------------------------|
 |----------------------------------------------------|
 |---------14b16==(16)-------(14)-12----12-(12)-------|
 |-----------------------------------14---------------|
 |----------------------------------------------------|
 |-0-0------------------------------------------------|

|
 
 |------------------0------------------------0--------|
 |-----0---------------0---0----------0---------0---0-|
 |---0---0---------------0---------0-----0--------0---|
 |-2---------------------------2----------------------|
 |----------------------------------------------------|
 |----------------------------------------------------|

[C] [Em] [C] [B]  
 
 |---------------------------------|-----0-----------------------|
 |---------------------------------|-----------------------------|
 |---------------------------------|-----------------------------|
 |---------------------------------|-----------------------------|
 |---------------------------------|-----------------3-------2---|
 |-0-------------------------------|-0-0-------------------------|

|
 
 |---------0---------------0-------|---------0-------------0-----|
 |-----0-----0---0-----1-----1---1-|-----0-----0---0-----1-------|
 |---0---0-----0-----0---0-----0---|---0---0-----0-----0---------|
 |-2-------------------------------|-2---------------------------|
 |-----------------3---------------|-----------------3-------2---|
 |---------------------------------|-----------------------------|

[Em] [F] [Em]  
 
 |---------------------------------|---------------------------------|
 |---------------------------------|---------------------------------|
 |---------------------------------|---------------------------------|
 |---------------------------------|---------------------------------|
 |---------------------------------|---------------------------------|
 |-0---------------1---------------|-0-------------------------------|

|
 
 |---------0---------------1-------|---------0---------------0-------|
 |-----0-----0---0-----1-----1-----|-----0-----0---0-----0-----0---0-|
 |---0---0-----0-----2---2-----2---|---0---0-----0-----0---0-----0---|
 |-2---------------3-------------3-|-2---------------2---------------|
 |---------------------------------|---------------------------------|
 |---------------------------------|---------------------------------|

[F]  
 
 |---------------------------------||
 |---------------------------------||
 |---------------------------------||
 |-3-------------------------------||
 |---------------------------------||
 |---------------------------------||

|
 
 |---------1---------------1-------||
 |-----1-----1---1-----1-----1---1-||
 |---2---2-----2-----2---2-----2---||
 |-3---------------3---------------||
 |---------------------------------||
 |---------------------------------||

Bridge
[E]  
 
 |------------------------|--------------------------|
 |------------------------|--------------------------|
 |------------------------|-----------------------7--|
 |-----------------6-7-9--|-----------------6-7-9----|
 |---7-8---5-7-7-8--------|---7-8---5-7-7-8----------|
 |-0-----0----------------|-0-----0------------------|

|
 
 |------------------------|--------------------------|
 |------------------------|--------------------------|
 |------------------------|-----------------------7--|
 |-----------------6-7-9--|-----------------6-7-9----|
 |---7-8---5-7-7-8--------|---7-8---5-7-7-8----------|
 |-0-----0----------------|-0-----0------------------|
 |------------------------|----------------------------------||
 |------------------------|----------------------------------||
 |------------------------|----------------------------------||
 |-----------------6-7-9--|-----6-7-9-10-9-7-6-7-6-----------||
 |---7-8---5-7-7-8--------|-7-8--------------------8-7-8-5-7-||
 |-0-----0----------------|----------------------------------||

|
 
 |------------------------|----------------------------------||
 |------------------------|----------------------------------||
 |------------------------|----------------------------------||
 |-----------------6-7-9--|-----6-7-9-10-9-7-6-7-6-----------||
 |---7-8---5-7-7-8--------|-7-8--------------------8-7-8-5-7-||
 |-0-----0----------------|----------------------------------||

2nd Verse
[Em] [C]  
 
 |---------------------------------|
 |---------------------------------|
 |-------------------------5-------|
 |---------------------------------|
 |-----------------3---------------|
 |-0-------------------------------|

|
 
 |---------0---------------0-------|
 |-----0-----0---0-----1-----1---1-|
 |---0---0-----0-----0---0-----0---|
 |-2-------------------------------|
 |-----------------3---------------|
 |---------------------------------|

[Em] [C] [B] [Em] [F]  
 
 |----------------------------|---------------------------------|
 |----------------------------|---------------------------------|
 |----------------------------|---------------------------------|
 |----------------------------|---------------------------------|
 |-----------------3-------2--|---------------------------------|
 |-0--------------------------|-0---------------1---------------|

|
 
 |---------0-------------0----|---------0---------------1-------|
 |-----0-----0---0-----1------|-----0-----0---0-----1-----1-----|
 |---0---0-----0-----0--------|---0---0-----0-----2---2-----2---|
 |-2--------------------------|-2---------------3-------------3-|
 |-----------------3-------2--|---------------------------------|
 |----------------------------|---------------------------------|

[Em]  
 
 |--------------------------------------|
 |--------------------------------------|
 |-----------------12-12\---------------|
 |-----------------12-12\---------------|
 |--------------------------------------|
 |-0------------------------------------|

|
 
 |---------0------------------0---------|
 |-----0-----0---0--------0-----0---0---|
 |---0---0-----0-------0----0-----0-----|
 |-2----------------2-------------------|
 |--------------------------------------|
 |--------------------------------------|

[C] [Em] [C] [B]  
 
 |---------------------------------|----------------------------|
 |---------------------------------|----------------------------|
 |---------------------------------|----------------------------|
 |---------------------------------|----------------------------|
 |-----------------3---------------|-----------------3-------2--|
 |-0-------------------------------|-0--------------------------|

|
 
 |---------0---------------0-------|---------0-------------0----|
 |-----0-----0---0-----1-----1---1-|-----0-----0---0-----1------|
 |---0---0-----0-----0---0-----0---|---0---0-----0-----0--------|
 |-2-------------------------------|-2--------------------------|
 |-----------------3---------------|-----------------3-------2--|
 |---------------------------------|----------------------------|

[Em] [F]  
 
 |-----------------------------------|
 |-----------------------------------|
 |-----------------------------------|
 |-----------------------------------|
 |-----------------------------------|
 |-0---------------1-----------------|

|
 
 |---------0---------------1---------|
 |-----0-----0---0-----1-----1-------|
 |---0---0-----0-----2---2-----2-----|
 |-2---------------3-------------3---|
 |-----------------------------------|
 |-----------------------------------|

Chorus
[Em] [Am]  
 
 |-----------------0---------------||---------------------------------|
 |-------------------0-0-----------||---------------------------------|
 |---------------------------------||---------------------------------|
 |-----------------------5-4-2-----||---------------------------------|
 |---------------------------------||-0-------------------------------|
 |-0-------------------------------||---------------------------------|

|
 
 |---------0---------------0-------||---------0---------------0-------|
 |-----0-----0---0-----0-----0---0-||-----1-----1---1-----1-----1---1-|
 |---0---0-----0-----0---0-----0---||---2---2-----2-----2---2-----2---|
 |-2---------------2---------------||---------------------------------|
 |---------------------------------||-0---------------0---------------|
 |---------------------------------||---------------------------------|

[F]  
 
 |------------------------------------|
 |------------------------------------|
 |------------------------------------|
 |-3----------------------------------|
 |------------------------------------|
 |------------------------------------|

|
 
 |---------1---------------1----------|
 |-----1-----1---1-----1-----1---1----|
 |---2---2-----2-----2---2-----2------|
 |-3---------------3------------------|
 |------------------------------------|
 |------------------------------------|

[E]  
 
 |------------------------|----------------------------------|
 |------------------------|----------------------------------|
 |------------------------|---------------2b4-(4)--(4)-2p0h2-|
 |-----------------6-7-9--|----------------------------------|
 |---7-8---5-7-7-8--------|---7-8---5-7----------------------|
 |-0-----0----------------|-0-----0--------------------------|

|
 
 |-------------0-0-----0--|-------------0------0----0--------|
 |-------------0-0-----0--|-------------0------0----0--------|
 |-------------1-1-----1--|-------------1------1----1--------|
 |-------------2-2-----2--|-------------2------2----2--------|
 |---7-8---5-7-2-2-----2--|---7-8---5-7-2------2----2--------|
 |-0-----0-----0-0-----0--|-0-----0-----0------0----0--------|

[Am]  
 
 |---------------------------------|
 |---------------------------------|
 |---------------------------------|
 |---------------------------------|
 |-0-------------------------------|
 |---------------------------------|

|
 
 |---------0---------------0-------|
 |-----1-----1---1-----1-----1---1-|
 |---2---2-----2-----2---2-----2---|
 |---------------------------------|
 |-0---------------0---------------|
 |---------------------------------|

[F] [C] [G]  
 
 |---------------------------------|---------------------------------|------||
 |---------------------------------|---------------------------------|------||
 |-5-------------------------------|---------------------------------|------||
 |-----------------3---------------|---------------------------------|-5----||
 |---------------------------------|-3-------------------------------|-5----||
 |---------------------------------|---------------------------------|-3----||

|
 
 |---------1---------------1-------|---------0---------------0-------|-3----||
 |-----1-----1---1-----1-----1---1-|-----1-----1---1-----1-----1---1-|-0----||
 |---2---2-----2-----2---2-----2---|---0---0-----0-----0---0-----0---|-0----||
 |-3---------------3---------------|---------------------------------|-0----||
 |---------------------------------|-3---------------3---------------|-2----||
 |---------------------------------|---------------------------------|-3----||

[B]  
[2/4]  
 
 |--------||------------------------|
 |--------||------------------------|
 |--------||---4-5---2-4------------|
 |-(5)----||-----------------1-2-4--|
 |-(5)----||-2-----2-----2-3--------|
 |-(3)----||------------------------|

|
 
 |-(3)----||------------------------|
 |-(0)----||------------------------|
 |-(0)----||---4-5---2-4------------|
 |-(0)----||-----------------1-2-4--|
 |-(2)----||-2-----2-----2-3--------|
 |-(3)----||------------------------|
 |-------------------------|--------------------------|
 |-------------------------|--------------------------|
 |---4-5---2-4-----------2-|---4-5---2-4--------------|
 |-----------------1-2-4---|-----------------1-2-4----|
 |-2-----2-----2-3---------|-2-----2-----2-3----------|
 |-------------------------|--------------------------|

|
 
 |-------------------------|--------------------------|
 |-------------------------|--------------------------|
 |---4-5---2-4-----------2-|---4-5---2-4--------------|
 |-----------------1-2-4---|-----------------1-2-4----|
 |-2-----2-----2-3---------|-2-----2-----2-3----------|
 |-------------------------|--------------------------|
 |---------------------------------||
 |---------------------------------||
 |---------------------------------||
 |-----1-2-4-5-4-2-1-2-1-----------||
 |-2-3-------------------3-2-3-0-2-||
 |---------------------------------||

|
 
 |---------------------------------||
 |---------------------------------||
 |---------------------------------||
 |-----1-2-4-5-4-2-1-2-1-----------||
 |-2-3-------------------3-2-3-0-2-||
 |---------------------------------||

Guitar Solo
[Em] [C] [Em] [C] [B]  
 
 |-------------------------------------|----------------------------------|
 |-------------------------------------|----------------------------------|
 |-5S12-----------------------11S==9-9-|-9-----------------------9-11-11S=|
 |-------------------------------------|----------------------------------|
 |-------------------------------------|----------------------------------|
 |-------------------------------------|----------------------------------|

|
 
 |------------0----------------0-------|---------0-------------0----------|
 |--------0-----0---0-----1------1---1-|-----0-----0---0-----1------------|
 |------0---0-----0-----0---0------0---|---0---0-----0-----0--------------|
 |----2--------------------------------|-2--------------------------------|
 |--------------------3----------------|-----------------3-------2--------|
 |-------------------------------------|----------------------------------|

[Em] [F]  
 
 |----------------------------------------|
 |----------------------------------------|
 |-12S==16---(16)---------------14S==12---|
 |----------------------------------------|
 |----------------------------------------|
 |----------------------------------------|

|
 
 |-------------0-----------------1--------|
 |-------0--------0---0-----1------1------|
 |----0----0--------0-----2---2-------2---|
 |--2-------------------3---------------3-|
 |----------------------------------------|
 |----------------------------------------|

[Em] [Em] TP[C]
 
 |-------------------------------------------|--------------------------------------|
 |-------------------------------------------|--------------------------------------|
 |-(12)---12---12S11-9-9-(9)---9-8-(8)---5---|-4---4---4-------/9-------11---12-12S=|
 |-------------------------------------------|--------------------------------------|
 |-------------------------------------------|--------------------------------------|
 |-------------------------------------------|--------------------------------------|

|
 
 |--------------0-------------------0--------|---------0-----------------0----------|
 |---------0-------0---0-------0-------0---0-|-----0-----0---0------1------1-----1--|
 |------0----0-------0-------0---0-------0---|---0---0-----0------0---0-------0-----|
 |---2--------------------2------------------|-2------------------------------------|
 |-------------------------------------------|------------------3-------------------|
 |-------------------------------------------|--------------------------------------|

[Em] [C] [B]  
 
 |--------------12-14-15-------14-------|
 |--------------------------------17-15-|
 |-16-----------------------------------|
 |--------------------------------------|
 |--------------------------------------|
 |--------------------------------------|

|
 
 |----------0----------------0----------|
 |------0-----0-----0------1------------|
 |----0---0------0-------0--------------|
 |--2-----------------------------------|
 |---------------------3--------2-------|
 |--------------------------------------|

[Em] [F] [Em]  
 
 |------------------------------------15---17-17S|=19---------------------------------||
 |-(15)S==17---(17)-------(17)---17--------------|------------------7\----------------||
 |-----------------------------------------------|------------------------------------||
 |-----------------------------------------------|------------------------------------||
 |-----------------------------------------------|------------------------------------||
 |-----------------------------------------------|------------------------------------||

|
 
 |---------------0---------------------1---------|----------0----------------0--------||
 |---------0--------0---0---------1------1-------|------0-----0---0------0-----0---0--||
 |------0----0--------0--------2----2-------2----|----0---0-----0------0---0-----0----||
 |---2----------------------3------------------3-|--2---------------2-----------------||
 |-----------------------------------------------|------------------------------------||
 |-----------------------------------------------|------------------------------------||

[Am]  
 
 |-8---7---5---8---7---5---8---7---5---8---7---5---|
 |-------------------------------------------------|
 |-------------------------------------------------|
 |-------------------------------------------------|
 |-------------------------------------------------|
 |-------------------------------------------------|

|
 
 |-------------0-----------------------0-----------|
 |-------1-------1-------1-------1-------1-------1-|
 |---2-------2-------2-------2-------2-------2-----|
 |-------------------------------------------------|
 |-0-----------------------0-----------------------|
 |-------------------------------------------------|

[F]  
 
 |-8-----------10---10-----------12-12-|
 |-------------------------------------|
 |-------------------------------------|
 |-------------------------------------|
 |-------------------------------------|
 |-------------------------------------|

|
 
 |---------1-----------------1---------|
 |-----1-----1----1------1-----1-----1-|
 |---2---2------2------2---2------2----|
 |-3-----------------3-----------------|
 |-------------------------------------|
 |-------------------------------------|

[E]  
 
 |-(12)-------0-12S0-8--12-----|-0---------------------|
 |-------------------------12\-|-----------------------|
 |-----------------------------|---------12\-----------|
 |-----------------------------|---------12\-----------|
 |-----------------------------|-----------------------|
 |-----------------------------|-----------------------|

|
 
 |-----------------0-0---0-----|---------------0-0--0--|
 |-----------------0-0---0-----|---------------0-0--0--|
 |-----------------1-1---1-----|---------------1-1--1--|
 |-----------------2-2---2-----|---------------2-2--2--|
 |------7-8---5--7-2-2---2-----|---7-8----5--7-2-2--2--|
 |---0------0------0-0---0-----|-0-----0-------0-0--0--|

[Am]  
 
 |----------------------------------|
 |----------------------------------|
 |----------------------------------|
 |----------------------------------|
 |-0--------------------------------|
 |----------------------------------|

|
 
 |---------0---------------0--------|
 |-----1-----1---1-----1-----1---1--|
 |---2---2-----2-----2---2-----2----|
 |----------------------------------|
 |-0---------------0----------------|
 |----------------------------------|

[F]  
 
 |---------------------------------|
 |---------------------------------|
 |-5-------------------------------|
 |-----------------3---------------|
 |---------------------------------|
 |---------------------------------|

|
 
 |---------1---------------1-------|
 |-----1-----1---1-----1-----1---1-|
 |---2---2-----2-----2---2-----2---|
 |-3---------------3---------------|
 |---------------------------------|
 |---------------------------------|

[C] [G] 
[2/4]  
 
 |---------------------------------||----------||--------|
 |---------------------------------||----------||--------|
 |---------------------------------||----------||--------|
 |---------------------------------||-5--------||-(5)----|
 |-3-------------------------------||-5--------||-(5)----|
 |---------------------------------||-3--------||-(3)----|

|
 
 |---------0---------------0-------||-3--------||-(3)----|
 |-----1-----1---1-----1-----1---1-||-0--------||-(0)----|
 |---0---0-----0-----0---0-----0---||-0--------||-(0)----|
 |---------------------------------||-0--------||-(0)----|
 |-3---------------3---------------||-2--------||-(2)----|
 |---------------------------------||-3--------||-(3)----|

[B]  
[4/4]  
 
 |------------------------|-------------------------|--------------------------|
 |------------------------|-------------------------|--------------------------|
 |---4-5---2-4------------|---4-5---2-4-----------2-|---4-5---2-4--------------|
 |-----------------1-2-4--|-----------------1-2-4---|-----------------1-2-4----|
 |-2-----2-----2-3--------|-2-----2-----2-3---------|-2-----2-----2-3----------|
 |------------------------|-------------------------|--------------------------|

|
 
 |------------------------|-------------------------|--------------------------|
 |------------------------|-------------------------|--------------------------|
 |---4-5---2-4------------|---4-5---2-4-----------2-|---4-5---2-4--------------|
 |-----------------1-2-4--|-----------------1-2-4---|-----------------1-2-4----|
 |-2-----2-----2-3--------|-2-----2-----2-3---------|-2-----2-----2-3----------|
 |------------------------|-------------------------|--------------------------|
 |-------------------------|------------------------|--------------------------|
 |-------------------------|------------------------|--------------------------|
 |---4-5---2-4-----------2-|---4-5---2-4------------|---4-5---2-4-----------2--|
 |-----------------1-2-4---|-----------------1-2-4--|-----------------1-2-4----|
 |-2-----2-----2-3---------|-2-----2-----2-3--------|-2-----2-----2-3----------|
 |-------------------------|------------------------|--------------------------|

|
 
 |-------------------------|------------------------|--------------------------|
 |-------------------------|------------------------|--------------------------|
 |---4-5---2-4-----------2-|---4-5---2-4------------|---4-5---2-4-----------2--|
 |-----------------1-2-4---|-----------------1-2-4--|-----------------1-2-4----|
 |-2-----2-----2-3---------|-2-----2-----2-3--------|-2-----2-----2-3----------|
 |-------------------------|------------------------|--------------------------|
 |------------------------|---------------------------------||
 |------------------------|---------------------------------||
 |---4-5---2-4------------|---------------------------------||
 |-----------------1-2-4--|-----1-2-4-5-4-2-1-2-1-----------||
 |-2-----2-----2-3--------|-2-3-------------------3-2-3-0-2-||
 |------------------------|---------------------------------||

|
 
 |------------------------|---------------------------------||
 |------------------------|---------------------------------||
 |---4-5---2-4------------|---------------------------------||
 |-----------------1-2-4--|-----1-2-4-5-4-2-1-2-1-----------||
 |-2-----2-----2-3--------|-2-3-------------------3-2-3-0-2-||
 |------------------------|---------------------------------||

[Am]  
 
 |---------------------------------|
 |---------------------------------|
 |---------------------------------|
 |---------------------------------|
 |-0-------------------------------|
 |---------------------------------|

|
 
 |---------0---------------0-------|
 |-----1-----1---1-----1-----1---1-|
 |---2---2-----2-----2---2-----2---|
 |---------------------------------|
 |-0---------------0---------------|
 |---------------------------------|

[F] [E]  
 
 |---------------------------------|-------------------------|
 |---------------------------------|-------------------------|
 |---------------------------------|-----------------------7-|
 |-3-------------------------------|-----------------6-7-9---|
 |---------------------------------|---7-8---5-7-7-8---------|
 |---------------------------------|-0-----0-----------------|

|
 
 |---------1---------------1-------|-------------0-0-----0---|
 |-----1-----1---1-----1-----1---1-|-------------0-0-----0---|
 |---2---2-----2-----2---2-----2---|-------------1-1-----1---|
 |-3---------------3---------------|-------------2-2-----2---|
 |---------------------------------|---7-8---5-7-2-2-----2---|
 |---------------------------------|-0-----0-----0-0-----0---|
 |----------------------------------|
 |----------------------------------|
 |---------------2b4-(4)--(4)-2p0h2-|
 |----------------------------------|
 |---7-8---5-7----------------------|
 |-0-----0--------------------------|

|
 
 |-------------0------0----0--------|
 |-------------0------0----0--------|
 |-------------1------1----1--------|
 |-------------2------2----2--------|
 |---7-8---5-7-2------2----2--------|
 |-0-----0-----0------0----0--------|

[Am]  
 
 |---------------------------------|
 |---------------------------------|
 |---------------------------------|
 |---------------------------------|
 |-0-------------------------------|
 |---------------------------------|

|
 
 |---------0---------------0-------|
 |-----1-----1---1-----1-----1---1-|
 |---2---2-----2-----2---2-----2---|
 |---------------------------------|
 |-0---------------0---------------|
 |---------------------------------|

[F] [C]  
 
 |---------------------------------|---------------------------------|
 |---------------------------------|---------------------------------|
 |-5-------------------------------|---------------------------------|
 |-----------------3---------------|---------------------------------|
 |---------------------------------|-3-------------------------------|
 |---------------------------------|---------------------------------|

|
 
 |---------1---------------1-------|---------0---------------0-------|
 |-----1-----1---1-----1-----1---1-|-----1-----1---1-----1-----1---1-|
 |---2---2-----2-----2---2-----2---|---0---0-----0-----0---0-----0---|
 |-3---------------3---------------|---------------------------------|
 |---------------------------------|-3---------------3---------------|
 |---------------------------------|---------------------------------|

Outro
[G] [F] 
[2/4] [4/4]  
 
 |------||-----------------------------3-5-||-1--------------------------------|
 |------||-----------------------3-5-6-----||-1--------------------------------|
 |------||-----------------2-4-5-----------||-2--------------------------------|
 |-5----||-----------2-3-5-----------------||-3--------------------------------|
 |-5----||-----2-3-5-----------------------||-3--------------------------------|
 |-3----||-3-5-----------------------------||-1--------------------------------|

|
 
 |-3----||-----------------------------3-5-||---------1---------------1--------|
 |-0----||-----------------------3-5-6-----||-----1-----1---1-----1-----1---1--|
 |-0----||-----------------2-4-5-----------||---2---2-----2-----2---2-----2----|
 |-0----||-----------2-3-5-----------------||-3---------------3----------------|
 |-2----||-----2-3-5-----------------------||----------------------------------|
 |-3----||-3-5-----------------------------||----------------------------------|

[C] [G]  
 
 |---------------------------------|-3--------|
 |-5-------5-------5-------5-------|-3--------|
 |-5-------5-------5-------5-------|-4--------|
 |-5-------5-------5-------5-------|-5--------|
 |-3-------3-------3-------3-------|-5--------|
 |---------------------------------|-3--------|

|
 
 |---------0---------------0-------|-3--------|
 |-----1-----1---1-----1-----1---1-|-0--------|
 |---0---0-----0-----0---0-----0---|-0--------|
 |---------------------------------|-0--------|
 |-3---------------3---------------|-2--------|
 |---------------------------------|-3--------|
 |-----------------------------3-5---|
 |-----------------------3-5-6-------|
 |-----------------2-4-5-------------|
 |-----------2-3-5-------------------|
 |-----2-3-5-------------------------|
 |-3-5-------------------------------|

|
 
 |-----------------------------3-5---|
 |-----------------------3-5-6-------|
 |-----------------2-4-5-------------|
 |-----------2-3-5-------------------|
 |-----2-3-5-------------------------|
 |-3-5-------------------------------|

[F] [C] [G]  
 
 |-1-------1-------1-------1-------|---------------------------------|-3----|
 |-1-------1-------1-------1-------|-5-------5-------5-------5-------|-3----|
 |-2-------2-------2-------2-------|-5-------5-------5-------5-------|-4----|
 |-3-------3-------3-------3-------|-5-------5-------5-------5-------|-5----|
 |-3-------3-------3-------3-------|-3-------3-------3-------3-------|-5----|
 |-1-------1-------1-------1-------|---------------------------------|-3----|

|
 
 |---------1---------------1-------|---------0---------------0-------|-3----|
 |-----1-----1---1-----1-----1---1-|-----1-----1---1-----1-----1---1-|-0----|
 |---2---2-----2-----2---2-----2---|---0---0-----0-----0---0-----0---|-0----|
 |-3---------------3---------------|---------------------------------|-0----|
 |---------------------------------|-3---------------3---------------|-2----|
 |---------------------------------|---------------------------------|-3----|

[Gm] [Dm] [Gm]  
 
 |-(3)--------||---------|---------|-13b15r(15)----15-13-10----10--|
 |-(3)--------||---------|---------|------------------------13-----|
 |-(4)--------||---------|---------|-------------------------------|
 |-(5)--------||---------|---------|-------------------------------|
 |-(5)--------||---------|---------|-------------------------------|
 |-(3)--------||---------|---------|-------------------------------|

|
 
 |-(3)--------||---------|---------|-------------------------------|
 |-(0)--------||---------|---------|-------------------------------|
 |-(0)--------||---------|---------|-------------------------------|
 |-(0)--------||---------|---------|-------------------------------|
 |-(2)--------||---------|---------|-------------------------------|
 |-(3)--------||---------|---------|-------------------------------|

[Dm]  
 
 |-10------------10----10-------------10--------------|
 |----13b15r(15)----13-------------10----10-----------|
 |------------------------12b14r14----------10--------|
 |---------------------------------------------12\----|
 |----------------------------------------------------|
 |----------------------------------------------------|

|
 
 |----------------------------------------------------|
 |----------------------------------------------------|
 |----------------------------------------------------|
 |----------------------------------------------------|
 |----------------------------------------------------|
 |----------------------------------------------------|

[Gm] [Dm]  
 
 |-----3-5-6-6-6-6-6-5h6p5h6p5-3S|=5-------------|
 |-------------------------------|------6-5------|
 |-------------------------------|----------7----|
 |-------------------------------|---------------|
 |-------------------------------|---------------|
 |-------------------------------|---------------|

|
 
 |-3-3---------------------------|-5-5-----------|
 |-3-3---------------------------|-6-6-----------|
 |-3-3---------------------------|-7-7-----------|
 |-5-5---------------------------|-7-7-----------|
 |-5-5---------------------------|-5-5-----------|
 |-3-3---------------------------|---------------|

[Gm] [Dm]  
 
 |-------3-5-6-6-6-6-6-5-3-|-3S5----------------|
 |-----3-------------------|--------6-----------|
 |-------------------------|----------7-(7)\----|
 |-------------------------|--------------------|
 |-------------------------|--------------------|
 |-------------------------|--------------------|

|
 
 |-3-3---------------------|---5-5--------------|
 |-3-3---------------------|---6-6--------------|
 |-3-3---------------------|---7-7--------------|
 |-5-5---------------------|---7-7--------------|
 |-5-5---------------------|---5-5--------------|
 |-3-3---------------------|--------------------|

[Gm]  
 
 ||--10-------10-------10-------10-------10-----------|
 ||o----11-------11-------11-------11-------11----11--|
 ||--------12-------12-------12-------12-------12-----|
 ||---------------------------------------------------|
 ||o--------------------------------------------------|
 ||---------------------------------------------------|

|
 
 ||---3--3--------------------------------------------|
 ||o--3--3--------------------------------------------|
 ||---3--3--------------------------------------------|
 ||---5--5--------------------------------------------|
 ||o--5--5--------------------------------------------|
 ||---3--3--------------------------------------------|

[Dm]  
 
 |-10-------10----------10-10-------10-12-13-12h13-|
 |----10-------10----10-------10-------------------|
 |-------10-------10-------------10----------------|
 |-------------------------------------------------|
 |-------------------------------------------------|
 |-------------------------------------------------|

|
 
 |--5--5-------------------------------------------|
 |--6--6-------------------------------------------|
 |--7--7-------------------------------------------|
 |--7--7-------------------------------------------|
 |--5--5-------------------------------------------|
 |-------------------------------------------------|

[Gm] [Dm]  
 
 |-------------------------------------------------------|-----------------------------------||
 |-----13b15r(15)--13-(13)-15b17-15b17-15b17-15-13-11h13p|=11h13p==11-10--------------------o||
 |-------------------------------------------------------|----------------14-12-10-----------||
 |-------------------------------------------------------|-------------------------12\-------||
 |-------------------------------------------------------|----------------------------------o||
 |-------------------------------------------------------|-----------------------------------||

|
 
 |-3-3---------------------------------------------------|--5----5---------------------------||
 |-3-3---------------------------------------------------|--6----6--------------------------o||
 |-3-3---------------------------------------------------|--7----7---------------------------||
 |-5-5---------------------------------------------------|--7----7---------------------------||
 |-5-5---------------------------------------------------|--5----5--------------------------o||
 |-3-3---------------------------------------------------|-----------------------------------||

Tablature Legend
 
 ----------------

h - hammer-on
p - pull-off
b - bend
pb - pre-bend
r - bend release (if no number after the r, then release immediately)
/\ - slide into or out of (from/to "nowhere")
s - legato slide
S - shift slide
<n> - natural harmonic
(n) - artificial harmonic
n(n) - tapped harmonic
~ - vibrato
tr - trill
T - tap
TP - trem. picking
PM - palm muting
\n/ - tremolo bar dip; n = amount to dip
\n - tremolo bar down
n/ - tremolo bar up
/n\ - tremolo bar inverted dip
= - hold bend; also acts as connecting device for hammers/pulls
<> - volume swell (louder/softer)
x - on rhythm slash represents muted slash
o - on rhythm slash represents single note slash
Misc Legend
 
 -----------

| - bar
|| - double bar
||o - repeat start
o|| - repeat end
*| - double bar (ending)
: - bar (freetime)
$ - Segno
& - Coda

Important: The song above is NOT stored on the Chordie server. The original song is hosted at www.azchords.com. Chordie works as a search engine and provides on-the-fly formatting. Chordie does not index songs against artists'/composers' will. To remove this song please click here.

Text color:
Chord color:
Chord grids: 
Font size:    
Page size: 

Am B C Dm E Em F F# G Gm
Rate #3 of 3 versions

Jango Player

Login - add to songbook

SHARE PAGE  




You need to log in to post comments