Guitar Tabs, Chords and Lyrics
Update 25:10. 13:00. Site is back up running again. Songbooks are recovered. Woring on getting search back up..


Hall of the Mountain King  Rainbow

HALL OF THE MOUNTAIN KING
As recorded by Rainbow
(From the 1995 Album STRANGER IN US ALL)
Music by Edvard Grieg
Arranged by Richie Blackmore and Candice Night
Gtr I (E A D G B E) - 'Gtr. 1'
Gtr II (E A D G B E) - 'Gtr. 2'
Gtr III (E A D G B E) - 'Gtr. 3'
The lick in the middle of second verse might be wrong.
Not tabbed for the outro solo because its too hard to figure out.
Intro
N.C. E5 G5/E
Gtr I
 
 |----------------|-----------------|-----------------|-------------------|
 |----------------|-----------------|-----------------|-------------------|
 |----------------|-----------------|-9---------------|-12----------------|
 |---2-5--4--2----|-----------------|-9---------------|-12----------------|
 |--------------5-|-(5)-3--2--------|-7---------------|-10----------------|
 |-0--------------|-----------5-3-2-|-----------------|-------------------|

|
| Gtr II
 
 | PM-------------------------------|
 |----------------|-----------------|-----------------|-------------------|
 |----------------|-----------------|-----------------|-------------------|
 |----------------|-----------------|-----------------|-------------------|
 |----------------|-----------------|-----------------|-------------------|
 |----------------|-----------------|-2-2-2-2-2-2-2-2-|--2-2-2-2-2-2-2-2--|
 |----------------|-----------------|-0-0-0-0-0-0-0-0-|--0-0-0-0-0-0-0-0--|

[F#5/E] [F5/E] [E5]  
 
 |------------------|------------------|-----------------|-------------------|
 |------------------|------------------|-----------------|-------------------|
 |-11---------------|-10---------------|-9---------------|-(9)---------------|
 |-11---------------|-10---------------|-9---------------|-(9)---------------|
 |--9---------------|--8---------------|-7---------------|-(7)---------------|
 |------------------|------------------|-----------------|-------------------|

|
 
 | PM---------------------------------------------------------------------|
 |------------------|------------------|-----------------|-------------------|
 |------------------|------------------|-----------------|-------------------|
 |------------------|------------------|-----------------|-------------------|
 |------------------|------------------|-----------------|-------------------|
 |--2-2-2-2-2-2-2-2-|--2-2-2-2-2-2-2-2-|-2-2-2-2-2-2-2-2-|--2--2-2-2-2-2-2-2-|
 |--0-0-0-0-0-0-0-0-|--0-0-0-0-0-0-0-0-|-0-0-0-0-0-0-0-0-|--0--0-0-0-0-0-0-0-|
 |---------------------|------------------||
 |----8---8----8-8-----|---8-8---8-8\-----||
 |---(9)-(9)---9-9-----|---9-9---9-9\-----||
 |---------------------|------------------||
 |---------------------|------------------||
 |---------------------|------------------||

|
 
 | PM---------------------------------------
 |---------------------|------------------||
 |---------------------|------------------||
 |---------------------|------------------||
 |---------------------|------------------||
 |-2--2---2--2-2-2-2-2-|-2-2-2-2-2-2--2-2-||
 |-0--0---0--0-0-0-0-0-|-0-0-0-0-0-0--0-0-||

Verse 1
 
 |---------------------|---------------------|
 |---------------------|---------------------|
 |---------------------|---------------------|
 |---------------------|---------------------|
 |---------------------|---------------------|
 |---------------------|---------------------|

|
 
 |-----------------------------------------|
 |---------------------|---------------------|
 |---------------------|---------------------|
 |---------------------|---------------------|
 |-----(2)-------(2)---|-----(2)-------(2)---|
 |-2-2--2--2-2-2--2--2-|-2-2--2--2-2-2--2--2-|
 |-0-0--0--0-0-0--0--0-|-0-0--0--0-0-0--0--0-|

[Bb5]Gtr II[A5] [E5]
 
 PM------------------------------------------------------------------|
 |-----------------|-----------------|-----------------|-----------------|
 |-----------------|-----------------|-----------------|-----------------|
 |-----3-------3---|-----2-------2---|-----------------|-----------------|
 |-3-3-3-3-3-3-3-3-|-2-2-2-2-2-2-2-2-|-----2-------2---|-----2-------2---|
 |-1-1-1-1-1-1-1-1-|-0-0-0-0-0-0-0-0-|-2-2-2-2-2-2-2-2-|-2-2-2-2-2-2-2-2-|
 |-----------------|-----------------|-0-0-0-0-0-0-0-0-|-0-0-0-0-0-0-0-0-|

[G5]Gtr I
 
 |-----------------|---------------------|
 |-----------------|---------------------|
 |-----------------|---------------------|
 |-----------------|---------------------|
 |-----------------|---------------------|
 |-----------------|---------------------|

|
| Gtr II
 
 | PM-------------------------------------
 |-----------------|---------------------|
 |-----------------|---------------------|
 |-----------------|---------------------|
 |-----5-------5---|-----5-----------5---|
 |-5-5-5-5-5-5-5-5-|-5-5-5-5--5----5-5-5-|
 |-3-3-3-3-3-3-3-3-|-3-3-3-3--3----3-3-3-|

|
| Gtr III
 
 |-----------------|---------------------|
 |-----------------|---------10b12-------|
 |-----------------|---------------------|
 |-----------------|---------------------|
 |-----------------|---------------------|
 |-----------------|---------------------|

[F#5]  
 
 |--------------------------|------------------------|
 |--------------------------|------------------------|
 |--------------------------|------------------------|
 |--------------------------|----------------5---4---|
 |--------------------------|----------------5---4---|
 |--------------------------|----------------3---2---|

|
 
 |-------------------------------------------------|
 |--------------------------|------------------------|
 |--------------------------|------------------------|
 |--------------------------|------------------------|
 |--------5--------5--------|------------5-----------|
 |---5--5-5-5-5-5--5--5-----|---5------5-5-5-5-5-4-4-|
 |---3--3-3-3-3-3--3--3-----|---3------3-3-3-3-3-2-2-|

|
 
 |----------------10--------|------------------------|
 |-(10)--------------10pb12-|-(10)pb12r==============|
 |--------------------------|------------------------|
 |--------------------------|------------------------|
 |--------------------------|------------------------|
 |--------------------------|------------------------|

[E5] [Bb5]  
 
 |----------------------|-----------------|-----------------|
 |----------------------|-----------------|-----------------|
 |----------------------|-----------------|-----------------|
 |-2--------------------|-----------------|-----------------|
 |-2--------------------|-----------------|-----------------|
 |-0--------------------|-----------------|-----------------|

|
 
 | PM-----------------------------------------------------|
 |----------------------|-----------------|-----------------|
 |----------------------|-----------------|-----------------|
 |----------------------|-----------------|-----3-------3---|
 |----------2-------2---|-----2-------2---|-3-3-3-3-3-3-3-3-|
 |-2----2---2-2-2-2-2-2-|-2-2-2-2-2-2-2-2-|-1-1-1-1-1-1-1-1-|
 |-0----0---0-0-0-0-0-0-|-0-0-0-0-0-0-0-0-|-----------------|

|
| >
 
 |----------------------|-----------------|-----------------|
 |-7tr8---7p5-----------|-----------------|-----------------|
 |----------------------|-----------------|-----------------|
 |----------------------|-----------------|-----------------|
 |----------------------|-----------------|-----------------|
 |----------------------|-----------------|-----------------|

[A5]Gtr II[E5]
 
 PM------------------------------------------------|
 |-----------------|-----------------|-----------------|
 |-----------------|-----------------|-----------------|
 |-----2-------2---|-----------------|-----------------|
 |-2-2-2-2-2-2-2-2-|-----2-------2---|-----2-------2---|
 |-0-0-0-0-0-0-0-0-|-2-2-2-2-2-2-2-2-|-2-2-2-2-2-2-2-2-|
 |-----------------|-0-0-0-0-0-0-0-0-|-0-0-0-0-0-0-0-0-|

[G5]Gtr I
 
 |-----------------|-----------------|------------------|--------------------||
 |-----------------|-----------------|---8--------------|---------------8\---||
 |-----------------|-----------------|-7---7------------|---------------7\---||
 |-----------------|-----------------|-------10p9-------|-(9)----------------||
 |-----------------|-----------------|------------------|--------------------||
 |-----------------|-----------------|------------------|--------------------||

|
| Gtr II
 
 | PM----------------------------------------------------------------------|
 |-----------------|-----------------|------------------|--------------------||
 |-----------------|-----------------|------------------|--------------------||
 |-----------------|-----------------|------------------|--------------------||
 |-----5-------5---|-----5-------5---|-----5--------5---|-------5------------||
 |-5-5-5-5-5-5-5-5-|-5-5-5-5-5-5-5-5-|-5-5-5--5-5-5-5-5-|--5--5-5-5-5-5-5--5-||
 |-3-3-3-3-3-3-3-3-|-3-3-3-3-3-3-3-3-|-3-3-3--3-3-3-3-3-|--3--3-3-3-3-3-3--3-||

Pre-Chorus
[B5]Gtr II[C5] [B5]
 
 PM---------------------------------------------------------------------|
 |------------------|-----------------|-------------------|-----------------|
 |------------------|-----------------|-------------------|-----------------|
 |------------------|-----------------|-------------------|-----------------|
 |-4-4-4-4--4-4-4-4-|-4-4-4-4-4-4-4-4-|-5-5--5-5-5-5--5-5-|-4-4-4-4-4-4-4-4-|
 |-2-2-2-2--2-2-2-2-|-2-2-2-2-2-2-2-2-|-3-3--3-3-3-3--3-3-|-2-2-2-2-2-2-2-2-|
 |------------------|-----------------|-------------------|-----------------|

|
| Gtr III
 
 | PM-------------------------------------------------------------------|
 |------------------|-----------------|-------------------|-----------------|
 |---7------------7-|-7-----7---------|-8------8----------|-7-----7---------|
 |-------8-11p8-----|---8-------8-----|---9--------9------|---8-------8-----|
 |-----9--------9---|-----9-------9---|-----10-------10---|-----9-------9---|
 |------------------|-----------------|-------------------|-----------------|
 |-7----------------|-----------------|-------------------|-----------------|

[C5] [B5]  
 
 PM--------------------------------------------------------------------|
 |-----------------|-----------------|-------------------|-----------------|
 |-----------------|-----------------|-------------------|-----------------|
 |-----------------|-----------------|-------------------|-----------------|
 |-4-4-4-4-4-4-4-4-|-4-4-4-4-4-4-4-4-|-5-5--5-5-5-5--5-5-|-4-4-4-4-4-4-4-4-|
 |-2-2-2-2-2-2-2-2-|-2-2-2-2-2-2-2-2-|-3-3--3-3-3-3--3-3-|-2-2-2-2-2-2-2-2-|
 |-----------------|-----------------|-------------------|-----------------|

|
 
 | PM------------------------------------------------------------------|
 |-----------------|-----------------|-------------------|-----------------|
 |-----------------|-7-----7---------|-8------8----------|-7-----7---------|
 |-----------8-----|---8-------8-----|---9--------9------|---8-------8-----|
 |-------9-------9-|-----9-------9---|-----10-------10---|-----9-------9---|
 |---9-------------|-----------------|-------------------|-----------------|
 |-7---------------|-----------------|-------------------|-----------------|

[E5]Gtr I[G5/E] [F#5/E] [F5/E]
 
 |-----------------|------------------|------------------|------------------||
 |-----------------|------------------|------------------|------------------||
 |-9---------------|-12---------------|-11---------------|-10---------------||
 |-9---------------|-12---------------|-11---------------|-10---------------||
 |-7---------------|-10---------------|--9---------------|--8---------------||
 |-0---------------|------------------|------------------|------------------||

|
| Gtr II
 
 | PM---------------------------------------------------------------------|
 |-----------------|------------------|------------------|------------------||
 |-----------------|------------------|------------------|------------------||
 |-----------------|------------------|------------------|------------------||
 |-----------------|------------------|------------------|------------------||
 |-2-2-2-2-2-2-2-2-|--2-2-2-2-2-2-2-2-|--2-2-2-2-2-2-2-2-|--2-2-2-2-2-2-2-2-||
 |-0-0-0-0-0-0-0-0-|--0-0-0-0-0-0-0-0-|--0-0-0-0-0-0-0-0-|--0-0-0-0-0-0-0-0-||

Verse 2
[E5] >
 
 |---------------------|-----------------------|
 |---------------------|-----------------------|
 |-9-------------------|-(9)-------------------|
 |-9-------------------|-(9)-------------------|
 |-7-------------------|-(7)-------------------|
 |-0-------------------|-(0)-------------------|

|
 
 | PM-------------------------------------------
 |---------------------|-----------------------|
 |---------------------|-----------------------|
 |---------------------|-----------------------|
 |-----(2)-------(2)---|-------(2)-------(2)---|
 |-2-2--2--2-2-2--2--2-|--2--2--2--2-2-2--2--2-|
 |-0-0--0--0-0-0--0--0-|--0--0--0--0-0-0--0--0-|

[Bb5] [A5]  
 
 |-----------------|-----------------|
 |-----------------|-----------------|
 |-----------------|-----------------|
 |-----------------|-----------------|
 |-----------------|-----------------|
 |-----------------|-----------------|

|
 
 |---------------------------------|
 |-----------------|-----------------|
 |-----------------|-----------------|
 |-----3-------3---|-----2-------2---|
 |-3-3-3-3-3-3-3-3-|-2-2-2-2-2-2-2-2-|
 |-1-1-1-1-1-1-1-1-|-0-0-0-0-0-0-0-0-|
 |-----------------|-----------------|

[E5]Gtr II[G5]
 
 PM------------------------------------------------------------------|
 |-----------------|-----------------|-----------------|-----------------|
 |-----------------|-----------------|-----------------|-----------------|
 |-----------------|-----------------|-----------------|-----------------|
 |-----2-------2---|-----2-------2---|-----5-------5---|-----5-------5---|
 |-2-2-2-2-2-2-2-2-|-2-2-2-2-2-2-2-2-|-5-5-5-5-5-5-5-5-|-5-5-5-5-5-5-5-5-|
 |-0-0-0-0-0-0-0-0-|-0-0-0-0-0-0-0-0-|-3-3-3-3-3-3-3-3-|-3-3-3-3-3-3-3-3-|

Gtr II[F#5]
 
 PM------------------------------------------------------------------|
 |---------------------------------------|---------------------------------|
 |---------------------------------------|---------------------------------|
 |---------------------------------------|---------------------------------|
 |---------5---------------------5-------|---------5-----------------------|
 |-5--5----5---5----5----5-------5---5---|-5---5---5---5---5---5---4---4---|
 |-3--3----3---3----3----3-------3---3---|-3---3---3---3---3---3---2---2---|

|
| Gtr III
 
 |---------------------------------------|---------------------------------|
 |-8-------------8-----------------------|---------------------------------|
 |---10b12-7-6-7---[7]-5-5b7r(5)p3-----5-|---5-------5---5-----------------|
 |---------------------------------5-8---|-8---8p5-----8---8p5-------------|
 |---------------------------------------|---------7-----------7-5---5p3h5-|
 |---------------------------------------|-------------------------7-------|

[E5]Gtr II
 
 PM-----------------------------------------
 |---------------------|---------------------|
 |---------------------|---------------------|
 |---------------------|---------------------|
 |-----(2)-------(2)---|-----(2)-------(2)---|
 |-2-2--2--2-2-2--2--2-|-2-2--2--2-2-2--2--2-|
 |-0-0--0--0-0-0--0--0-|-0-0--0--0-0-0--0--0-|

[Bb5] [A5]  
 
 ---------------------------------|
 |-----------------|-----------------|
 |-----------------|-----------------|
 |-----3-------3---|-----2-------2---|
 |-3-3-3-3-3-3-3-3-|-2-2-2-2-2-2-2-2-|
 |-1-1-1-1-1-1-1-1-|-0-0-0-0-0-0-0-0-|
 |-----------------|-----------------|

[E5]  
 
 PM------------------------------|
 |-----------------|-----------------|
 |-----------------|-----------------|
 |-----------------|-----------------|
 |-----2-------2---|-----2-------2---|
 |-2-2-2-2-2-2-2-2-|-2-2-2-2-2-2-2-2-|
 |-0-0-0-0-0-0-0-0-|-0-0-0-0-0-0-0-0-|

[G5]Gtr I
 
 |------------------|--------------------|
 |------------------|--------------------|
 |-12---------------|-(12)---------------|
 |-12---------------|-(12)---------------|
 |-10---------------|-(10)---------------|
 |------------------|--------------------|

|
| Gtr II
 
 | PM------------------------------------
 |------------------|--------------------|
 |------------------|--------------------|
 |------------------|--------------------|
 |------5-------5---|--------5-------5---|
 |--5-5-5-5-5-5-5-5-|---5--5-5-5-5-5-5-5-|
 |--3-3-3-3-3-3-3-3-|---3--3-3-3-3-3-3-3-|
 |--------------------|--------------------||
 |--------------------|--------------------||
 |-(12)---------------|-(12)---------------||
 |-(12)---------------|-(12)---------------||
 |-(10)---------------|-(10)---------------||
 |--------------------|--------------------||

|
 
 |---------------------------------------|
 |--------------------|--------------------||
 |--------------------|--------------------||
 |--------------------|--------------------||
 |--------5-------5---|--------5-----------||
 |---5--5-5-5-5-5-5-5-|---5--5-5-5-5-5-5-5-||
 |---3--3-3-3-3-3-3-3-|---3--3-3-3-3-3-3-3-||

Pre-Chorus
$
[B5]Gtr II[C5] [B5]
 
 PM--------------------------------------------------------------------|
 |-----------------|-----------------|-------------------|-----------------|
 |-----------------|-----------------|-------------------|-----------------|
 |-----------------|-----------------|-------------------|-----------------|
 |-4-4-4-4-4-4-4-4-|-4-4-4-4-4-4-4-4-|-5-5--5-5-5-5--5-5-|-4-4-4-4-4-4-4-4-|
 |-2-2-2-2-2-2-2-2-|-2-2-2-2-2-2-2-2-|-3-3--3-3-3-3--3-3-|-2-2-2-2-2-2-2-2-|
 |-----------------|-----------------|-------------------|-----------------|

|
| Gtr III
 
 | PM------------------------------------------------------------------|
 |-----------------|-----------------|-------------------|-----------------|
 |-----------------|-7-----7---------|-8------8----------|-7-----7---------|
 |-----------8-----|---8-------8-----|---9--------9------|---8-------8-----|
 |-------9-------9-|-----9-------9---|-----10-------10---|-----9-------9---|
 |---9-------------|-----------------|-------------------|-----------------|
 |-7---------------|-----------------|-------------------|-----------------|

[B5] [C5] [B5]  
 
 PM--------------------------------------------------------------------|
 |-----------------|-----------------|-------------------|-----------------|
 |-----------------|-----------------|-------------------|-----------------|
 |-----------------|-----------------|-------------------|-----------------|
 |-4-4-4-4-4-4-4-4-|-4-4-4-4-4-4-4-4-|-5-5--5-5-5-5--5-5-|-4-4-4-4-4-4-4-4-|
 |-2-2-2-2-2-2-2-2-|-2-2-2-2-2-2-2-2-|-3-3--3-3-3-3--3-3-|-2-2-2-2-2-2-2-2-|
 |-----------------|-----------------|-------------------|-----------------|

|
 
 | PM------------------------------------------------------------------|
 |-----------------|-----------------|-------------------|-----------------|
 |-----------------|-7-----7---------|-8------8----------|-7-----7---------|
 |-----------8-----|---8-------8-----|---9--------9------|---8-------8-----|
 |-------9-------9-|-----9-------9---|-----10-------10---|-----9-------9---|
 |---9-------------|-----------------|-------------------|-----------------|
 |-7---------------|-----------------|-------------------|-----------------|

[G#5] [B5]  
 
 PM------------------------------------------------------------------|
 |-----------------|-----------------|-----------------|-----------------|
 |-----------------|-----------------|-----------------|-----------------|
 |-----------------|-----------------|-----------------|-----------------|
 |-4-4-4-4-4-4-4-4-|-4-4-4-4-4-4-4-4-|-----------------|-4-4-4-4-4-4-4-4-|
 |-2-2-2-2-2-2-2-2-|-2-2-2-2-2-2-2-2-|-6-6-6-6-6-6-6-6-|-2-2-2-2-2-2-2-2-|
 |-----------------|-----------------|-4-4-4-4-4-4-4-4-|-----------------|

|
 
 | PM----------------------------------------------------------------|
 |-----------------|-----------------|-----------------|-----------------|
 |-----------------|-7-----7---------|-9-----9---------|-7-----7---------|
 |-----------8-----|---8-------8-----|---8-------8-----|---8-------8-----|
 |-------9-------9-|-----9-------9---|-----9-------9---|-----9-------9---|
 |---9-------------|-----------------|-----------------|-----------------|
 |-7---------------|-----------------|-----------------|-----------------|

[C5] [B5]  
 
 PM------------------------------------------------------------------|
 |-----------------|-----------------|-----------------|-----------------||
 |-----------------|-----------------|-----------------|-----------------||
 |-----------------|-----------------|-----------------|-----------------||
 |-4-4-4-4-4-4-4-4-|-4-4-4-4-4-4-4-4-|-----------------|-4-4-4-4-4-4-4-4-||
 |-2-2-2-2-2-2-2-2-|-2-2-2-2-2-2-2-2-|-6-6-6-6-6-6-6-6-|-2-2-2-2-2-2-2-2-||
 |-----------------|-----------------|-4-4-4-4-4-4-4-4-|-----------------||

|
 
 | PM----------------------------------------------------------------|
 |-----------------|-----------------|-----------------|-----------------||
 |-----------------|-7-----7---------|-9-----9---------|-7-----7---------||
 |-----------8-----|---8-------8-----|---8-------8-----|---8-------8-----||
 |-------9-------9-|-----9-------9---|-----9-------9---|-----9-------9---||
 |---9-------------|-----------------|-----------------|-----------------||
 |-7---------------|-----------------|-----------------|-----------------||

Chorus
N.C.
Gtrs I, III
 
 |----------------|---------------|-----------------|--------------|
 |----------------|---------------|-----------------|--------------|
 |----------------|---------------|-----------------|--------------|
 |----------------|---------------|---------------5-|-3-------3----|
 |-------3-5---5--|-4---4--3---3--|-------3-5---5---|---5---5------|
 |-3-5-6-----6----|---5------4----|-3-5-6-----6-----|-----6--------|

To Coda
 
 |----------------|---------------|-----------------|--------------||
 |----------------|---------------|-----------------|--------------||
 |----------------|---------------|-----------------|--------------||
 |----------------|---------------|---------------5-|-3-------3----||
 |-------3-5---5--|-4---4--3---3--|-------3-5---5---|---5---5------||
 |-3-5-6-----6----|---5------4----|-3-5-6-----6-----|-----6--------||
 |----------------|----------------|----------------|--------------|
 |----------------|----------------|----------------|--------------|
 |----------------|----------------|----------------|--------------|
 |-------5-7---7--|-8----8--7---7--|-------5-7---7--|-8----8--7----|
 |-5-7-9-----9----|---10------9----|-5-7-9-----9----|---10---------|
 |----------------|----------------|----------------|--------------|
 |----------------|---------------|----------------|-------------||
 |----------------|---------------|----------------|-------------||
 |----------------|---------------|----------------|-------------||
 |-------5-7---7--|-9---9--7---7--|-------5-7---7--|-9---9--7----||
 |-5-7-9-----9----|---9------9----|-5-7-9-----9----|---9---------||
 |----------------|---------------|----------------|-------------||

Interlude
 
 |------------|---------------|------------|---------------|
 |------------|---------------|------------|---------------|
 |------------|---------------|------------|---------------|
 |-7----------|---------------|-7----------|---------------|
 |-----9---7--|-------7-9-7-9-|-----9---7--|-------7-9-7-9-|
 |------------|-10------------|------------|-10------------|
 |------------|-------------|------------|-------------||
 |------------|-------------|------------|-------------||
 |------------|-------------|------------|-------------||
 |-7-------7--|-8--------8--|-7----------|-------------||
 |-----9------|-----10------|-----9---7--|-------------||
 |------------|-------------|------------|-10----11----||

Pre-Verse
[E5]Gtr I
 
 |-----------------|--------------------|-----------------|-----------------||
 |-----------------|--------------------|---8-8---7-7---5-|-5---3---2s5s0---||
 |-9---------------|-(9)-----------x/---|---9-9---7-7---5-|-5---4---2s5s0---||
 |-9---------------|-(9)-----------x/---|-----------------|-----------------||
 |-7---------------|-(7)-----------x/---|-----------------|-----------------||
 |-----------------|--------------------|-----------------|-----------------||

|
| Gtr II
 
 | PM---------------------------------------------------------------------|
 |-----------------|--------------------|-----------------|-----------------||
 |-----------------|--------------------|-----------------|-----------------||
 |-----------------|--------------------|-----------------|-----------------||
 |-----------------|--------------------|-----------------|-----------------||
 |-2-2-2-2-2-2-2-2-|--2--2-2-2-2-2-2--2-|-2-2-2-2-2-2-2-2-|-2-2-2-2-2-2-2-2-||
 |-0-0-0-0-0-0-0-0-|--0--0-0-0-0-0-0--0-|-0-0-0-0-0-0-0-0-|-0-0-0-0-0-0-0-0-||

Verse 3
Gtr I
>
 
 |---------------------|-----------------------|
 |---------------------|-----------------------|
 |-9-------------------|-(9)-------------------|
 |-9-------------------|-(9)-------------------|
 |-7-------------------|-(7)-------------------|
 |-0-------------------|-(0)-------------------|

|
| Gtr II
 
 | PM-------------------------------------------
 |---------------------|-----------------------|
 |---------------------|-----------------------|
 |---------------------|-----------------------|
 |-----(2)-------(2)---|-------(2)-------(2)---|
 |-2-2--2--2-2-2--2--2-|--2--2--2--2-2-2--2--2-|
 |-0-0--0--0-0-0--0--0-|--0--0--0--0-0-0--0--0-|

[Bb5] [A5]  
 
 |-----------------|-----------------|
 |-----------------|-----------------|
 |-----------------|-----------------|
 |-----------------|-----------------|
 |-----------------|-----------------|
 |-----------------|-----------------|

|
 
 |---------------------------------|
 |-----------------|-----------------|
 |-----------------|-----------------|
 |-----3-------3---|-----2-------2---|
 |-3-3-3-3-3-3-3-3-|-2-2-2-2-2-2-2-2-|
 |-1-1-1-1-1-1-1-1-|-0-0-0-0-0-0-0-0-|
 |-----------------|-----------------|

[E5] [G5]  
 
 |-----------------|-------------------|------------------|---------------------|
 |-----------------|-------------------|------------------|---------------------|
 |-9---------------|-(9)---------------|-12---------------|-(12)----------------|
 |-9---------------|-(9)---------------|-12---------------|-(12)-----------12---|
 |-7---------------|-(7)---------------|-10---------------|-(10)----------------|
 |-0---------------|-(0)---------------|------------------|---------------------|

|
 
 | PM-------------------------------------------------------------------------|
 |-----------------|-------------------|------------------|---------------------|
 |-----------------|-------------------|------------------|---------------------|
 |-----------------|-------------------|------------------|---------------------|
 |-----2-------2---|-------2-------2---|------5-------5---|--------5--------5---|
 |-2-2-2-2-2-2-2-2-|--2--2-2-2-2-2-2-2-|--5-5-5-5-5-5-5-5-|---5--5-5-5-5-5--5-5-|
 |-0-0-0-0-0-0-0-0-|--0--0-0-0-0-0-0-0-|--3-3-3-3-3-3-3-3-|---3--3-3-3-3-3--3-3-|
 |----------------------|--------------------|
 |-12-------------------|--------------------|
 |--------12-(12)-------|-(12)---------------|
 |--------12-(12)-------|-(12)---------------|
 |--------10-(10)-------|-(10)---------------|
 |----------------------|--------------------|

|
 
 | PM-------------------------------------|
 |----------------------|--------------------|
 |----------------------|--------------------|
 |----------------------|--------------------|
 |------5-----------5---|--------5-----------|
 |--5-5-5--5---5--5-5-5-|---5--5-5-5-5-5-4-4-|
 |--3-3-3--3---3--3-3-3-|---3--3-3-3-3-3-2-2-|

[E5]Gtr I
 
 |---------------------|-----------------------|
 |---------------------|-----------------------|
 |-9-------------------|-(9)---------9---------|
 |-9-------------------|-(9)---------9---------|
 |-7-------------------|-(7)---------7---------|
 |-0-------------------|-(0)-------------------|

|
| Gtr II
 
 | PM-------------------------------------------
 |---------------------|-----------------------|
 |---------------------|-----------------------|
 |---------------------|-----------------------|
 |-----(2)-------(2)---|-------(2)-------(2)---|
 |-2-2--2--2-2-2--2--2-|--2--2--2--2-2-2--2--2-|
 |-0-0--0--0-0-0--0--0-|--0--0--0--0-0-0--0--0-|

[Bb5] [A5]  
 
 PM--------------------------------------------|
 |-------------------------|-------------------------|
 |-------------------------|-------------------------|
 |-------------------------|-------------------------|
 |-15-15-15-15-15-15-15-15-|-14-14-14-14-14-14-14-14-|
 |-13-13-13-13-13-13-13-13-|-12-12-12-12-12-12-12-12-|
 |-------------------------|-------------------------|

|
 
 |------------------------------------------------|
 |-------------------------|-------------------------|
 |-------------------------|-------------------------|
 |--------3-----------3----|--------2-----------2----|
 |--3--3--3--3--3--3--3--3-|--2--2--2--2--2--2--2--2-|
 |--1--1--1--1--1--1--1--1-|--0--0--0--0--0--0--0--0-|
 |-------------------------|-------------------------|

[E5]  
 
 |-----------------|-------------------|
 |-----------------|-------------------|
 |-9---------------|-(9)---------------|
 |-9---------------|-(9)---------------|
 |-7---------------|-(7)---------------|
 |-----------------|-------------------|

|
 
 | PM--------------------------------|
 |-----------------|-------------------|
 |-----------------|-------------------|
 |-----------------|-------------------|
 |-----2-------2---|-------2-------2---|
 |-2-2-2-2-2-2-2-2-|--2--2-2-2-2-2-2-2-|
 |-0-0-0-0-0-0-0-0-|--0--0-0-0-0-0-0-0-|

[G5]Gtr I
 
 |------------------|-----------------------|
 |------------------|-------------12--------|
 |-12---------------|-(12)-------(12)-------|
 |-12---------------|-(12)-------(12)-------|
 |-10---------------|-(10)-------(10)-------|
 |------------------|-----------------------|

|
| Gtr II
 
 | PM---------------------------------------
 |------------------|-----------------------|
 |------------------|-----------------------|
 |------------------|-----------------------|
 |------5-------5---|--------5----------5---|
 |--5-5-5-5-5-5-5-5-|---5--5-5-5---5--5-5-5-|
 |--3-3-3-3-3-3-3-3-|---3--3-3-3---3--3-3-3-|

D.S. al Coda
 
 |------------------|--------------------||
 |------------------|--------------------||
 |-12---------------|-(12)---------------||
 |-12---------------|-(12)---------------||
 |-10---------------|-(10)---------------||
 |------------------|--------------------||

|
 
 |-------------------------------------|
 |------------------|--------------------||
 |------------------|--------------------||
 |------------------|--------------------||
 |------5-------5---|--------5-----------||
 |--5-5-5-5-5-5-5-5-|---5--5-5-5-5-5-5-5-||
 |--3-3-3-3-3-3-3-3-|---3--3-3-3-3-3-3-3-||

Out-Chorus
&
N.C.
Gtr I
 
 |-----------------------|-----------------------|
 |-----------------------|-----------------------|
 |-----------------------|-----------------------|
 |-----------5--7-----7--|---8-----8----7-----7--|
 |--5--7--9--------9-----|-----10----------9-----|
 |-----------------------|-----------------------|

|
| Gtr III
 
 |-----------------------|-----------------------|
 |-----------------------|-----------------------|
 |----------12-14----14--|-/15----15--/14----14--|
 |-12-14-16-------16-----|-----17---------16-----|
 |-----------------------|-----------------------|
 |-----------------------|-----------------------|
 |-----------------------|-----------------|
 |-----------------------|-----------------|
 |-----------------------|-----------------|
 |-----------5--7-----7--|--8-----8---7----|
 |--5--7--9--------9-----|----10-----------|
 |-----------------------|-----------------|

|
 
 |-----------------------|-----------------|
 |-----------------------|-----------------|
 |----------12-14----14--|-15----15--14----|
 |-12-14-16-------16-----|----17-----------|
 |-----------------------|-----------------|
 |-----------------------|-----------------|
 |-----------------------|-----------------------|
 |-----------------------|-----------------------|
 |-----------------------|-----------------------|
 |-----------5--7-----7--|---9-----9----7-----7--|
 |--5--7--9--------9-----|------9----------9-----|
 |-----------------------|-----------------------|

|
 
 |-----------------------|-----------------------|
 |-----------------------|-----------------------|
 |----------12-14----14--|-/16----16--/14----14--|
 |-12-14-16-------16-----|-----16---------16-----|
 |-----------------------|-----------------------|
 |-----------------------|-----------------------|
 |-----------------------|-----------------||
 |-----------------------|-----------------||
 |-----------------------|-----------------||
 |-----------5--7-----7--|--9-----9---7----||
 |--5--7--9--------9-----|-----9-----------||
 |-----------------------|-----------------||

|
 
 |-----------------------|-----------------||
 |-----------------------|-----------------||
 |----------12-14----14--|-16----16--14----||
 |-12-14-16-------16-----|----16-----------||
 |-----------------------|-----------------||
 |-----------------------|-----------------||
 |-----------------------|---------------------|
 |-----------------------|---------------------|
 |-----------------------|---------------------|
 |-----------3--5-----5--|--4-----4---3-----3--|
 |--3--5--6--------6-----|-----5---------4-----|
 |-----------------------|---------------------|

|
 
 |-----------------------|---------------------|
 |-----------------------|---------------------|
 |----------10-12----12--|-11----11--10----10--|
 |-10-12-13-------13-----|----12--------11-----|
 |-----------------------|---------------------|
 |-----------------------|---------------------|
 |-------------------------|-------------------|
 |-------------------------|-------------------|
 |-----------------------5-|--3-----------3----|
 |-----------3--5-----5----|-----5-----5-------|
 |--3--5--6--------6-------|--------6----------|
 |-------------------------|-------------------|

|
 
 |-------------------------|-------------------|
 |----------------------13-|-11----------11----|
 |----------10-12----12----|----12----12-------|
 |-10-12-13-------13-------|-------13----------|
 |-------------------------|-------------------|
 |-------------------------|-------------------|
 |-----------------------|---------------------|
 |-----------------------|---------------------|
 |-----------------------|---------------------|
 |-----------3--5-----5--|--4-----4---3-----3--|
 |--3--5--6--------6-----|-----5---------4-----|
 |-----------------------|---------------------|

|
 
 |-----------------------|---------------------|
 |-----------------------|---------------------|
 |----------10-12----12--|-11----11--10----10--|
 |-10-12-13-------13-----|----12--------11-----|
 |-----------------------|---------------------|
 |-----------------------|---------------------|
 |-------------------------|-------------------||
 |-------------------------|-------------------||
 |-----------------------5-|--3-----------3----||
 |-----------3--5-----5----|-----5-----5-------||
 |--3--5--6--------6-------|--------6----------||
 |-------------------------|-------------------||

|
 
 |-------------------------|-------------------||
 |----------------------13-|-11----------11----||
 |----------10-12----12----|----12----12-------||
 |-10-12-13-------13-------|-------13----------||
 |-------------------------|-------------------||
 |-------------------------|-------------------||
 |-----------------------|---------------------|
 |-----------------------|---------------------|
 |-----------5--7-----7--|--8-----8---7-----7--|
 |--5--7--9--------9-----|----10---------9-----|
 |-----------------------|---------------------|
 |-----------------------|---------------------|

|
 
 |-----------------------|---------------------|
 |----------13-15----15--|-16----16--15----15--|
 |-12-14-16-------16-----|----17--------16-----|
 |-----------------------|---------------------|
 |-----------------------|---------------------|
 |-----------------------|---------------------|
 |-----------------------|-----------------|
 |-----------------------|-----------------|
 |-----------5--7-----7--|--8-----8---7----|
 |--5--7--9--------9-----|----10-----------|
 |-----------------------|-----------------|
 |-----------------------|-----------------|

|
 
 |-----------------------|-----------------|
 |----------13-15----15--|-16----16--15----|
 |-12-14-16-------16-----|----17-----------|
 |-----------------------|-----------------|
 |-----------------------|-----------------|
 |-----------------------|-----------------|
 |-----------------------|---------------------|
 |-----------------------|---------------------|
 |-----------5--7-----7--|--9-----9---7-----7--|
 |--5--7--9--------9-----|-----9---------9-----|
 |-----------------------|---------------------|
 |-----------------------|---------------------|

|
 
 |-----------------------|---------------------|
 |----------13-15----15--|-17----17--15----15--|
 |-12-14-16-------16-----|----16--------16-----|
 |-----------------------|---------------------|
 |-----------------------|---------------------|
 |-----------------------|---------------------|
 |-----------------------|-----------------||
 |-----------------------|-----------------||
 |-----------5--7-----7--|--9-----9---7----||
 |--5--7--9--------9-----|-----9-----------||
 |-----------------------|-----------------||
 |-----------------------|-----------------||

|
 
 |-----------------------|-----------------||
 |----------13-15----15--|-17----17--15----||
 |-12-14-16-------16-----|----16-----------||
 |-----------------------|-----------------||
 |-----------------------|-----------------||
 |-----------------------|-----------------||

Faster Q=175
 
 |-----------------------|---------------------|
 |-----------------------|---------------------|
 |-----------------------|---------------------|
 |-----------3--5-----5--|--4-----4---3-----3--|
 |--3--5--6--------6-----|-----5---------4-----|
 |-----------------------|---------------------|

|
 
 |-----------------------|---------------------|
 |-----------------------|---------------------|
 |----------10-12----12--|-11----11--10----10--|
 |-10-12-13-------13-----|----12--------11-----|
 |-----------------------|---------------------|
 |-----------------------|---------------------|
 |-------------------------|-------------------|
 |-------------------------|-------------------|
 |-----------------------5-|--3-----------3----|
 |-----------3--5-----5----|-----5-----5-------|
 |--3--5--6--------6-------|--------6----------|
 |-------------------------|-------------------|

|
 
 |-------------------------|-------------------|
 |----------------------13-|-11----------11----|
 |----------10-12----12----|----12----12-------|
 |-10-12-13-------13-------|-------13----------|
 |-------------------------|-------------------|
 |-------------------------|-------------------|
 |-----------------------|---------------------|
 |-----------------------|---------------------|
 |-----------------------|---------------------|
 |-----------3--5-----5--|--4-----4---3-----3--|
 |--3--5--6--------6-----|-----5---------4-----|
 |-----------------------|---------------------|

|
 
 |-----------------------|---------------------|
 |-----------------------|---------------------|
 |----------10-12----12--|-11----11--10----10--|
 |-10-12-13-------13-----|----12--------11-----|
 |-----------------------|---------------------|
 |-----------------------|---------------------|
 |-------------------------|-------------------||
 |-------------------------|-------------------||
 |-----------------------5-|--3-----------3----||
 |-----------3--5-----5----|-----5-----5-------||
 |--3--5--6--------6-------|--------6----------||
 |-------------------------|-------------------||

|
 
 |-------------------------|-------------------||
 |----------------------13-|-11----------11----||
 |----------10-12----12----|----12----12-------||
 |-10-12-13-------13-------|-------13----------||
 |-------------------------|-------------------||
 |-------------------------|-------------------||

H=H
 
 |-----------------------|---------------------|
 |-----------------------|---------------------|
 |-----------5--7-----7--|--8-----8---7-----7--|
 |--5--7--9--------9-----|----10---------9-----|
 |-----------------------|---------------------|
 |-----------------------|---------------------|

|
 
 |-----------------------|---------------------|
 |----------13-15----15--|-16----16--15----15--|
 |-12-14-16-------16-----|----17--------16-----|
 |-----------------------|---------------------|
 |-----------------------|---------------------|
 |-----------------------|---------------------|
 |-----------------------|-----------------|
 |-----------------------|-----------------|
 |-----------5--7-----7--|--8-----8---7----|
 |--5--7--9--------9-----|----10-----------|
 |-----------------------|-----------------|
 |-----------------------|-----------------|

|
 
 |-----------------------|-----------------|
 |----------13-15----15--|-16----16--15----|
 |-12-14-16-------16-----|----17-----------|
 |-----------------------|-----------------|
 |-----------------------|-----------------|
 |-----------------------|-----------------|
 |-----------------------|---------------------|
 |-----------------------|---------------------|
 |-----------5--7-----7--|--9-----9---7-----7--|
 |--5--7--9--------9-----|-----9---------9-----|
 |-----------------------|---------------------|
 |-----------------------|---------------------|

|
 
 |-----------------------|---------------------|
 |----------13-15----15--|-17----17--15----15--|
 |-12-14-16-------16-----|----16--------16-----|
 |-----------------------|---------------------|
 |-----------------------|---------------------|
 |-----------------------|---------------------|
 |-----------------------|-----------------||
 |-----------------------|-----------------||
 |-----------5--7-----7--|--9-----9---7----||
 |--5--7--9--------9-----|-----9-----------||
 |-----------------------|-----------------||
 |-----------------------|-----------------||

|
 
 |-----------------------|-----------------||
 |----------13-15----15--|-17----17--15----||
 |-12-14-16-------16-----|----16-----------||
 |-----------------------|-----------------||
 |-----------------------|-----------------||
 |-----------------------|-----------------||

Faster Q=190
 
 |-----------------------|---------------------|
 |-----------------------|---------------------|
 |-----------------------|---------------------|
 |-----------3--5-----5--|--4-----4---3-----3--|
 |--3--5--6--------6-----|-----5---------4-----|
 |-----------------------|---------------------|

|
 
 |-----------------------|---------------------|
 |-----------------------|---------------------|
 |----------10-12----12--|-11----11--10----10--|
 |-10-12-13-------13-----|----12--------11-----|
 |-----------------------|---------------------|
 |-----------------------|---------------------|
 |-------------------------|-------------------|
 |-------------------------|-------------------|
 |-----------------------5-|--3-----------3----|
 |-----------3--5-----5----|-----5-----5-------|
 |--3--5--6--------6-------|--------6----------|
 |-------------------------|-------------------|

|
 
 |-------------------------|-------------------|
 |----------------------13-|-11----------11----|
 |----------10-12----12----|----12----12-------|
 |-10-12-13-------13-------|-------13----------|
 |-------------------------|-------------------|
 |-------------------------|-------------------|
 |-----------------------|---------------------|
 |-----------------------|---------------------|
 |-----------------------|---------------------|
 |-----------3--5-----5--|--4-----4---3-----3--|
 |--3--5--6--------6-----|-----5---------4-----|
 |-----------------------|---------------------|

|
 
 |-----------------------|---------------------|
 |-----------------------|---------------------|
 |----------10-12----12--|-11----11--10----10--|
 |-10-12-13-------13-----|----12--------11-----|
 |-----------------------|---------------------|
 |-----------------------|---------------------|
 |-------------------------|-------------------||
 |-------------------------|-------------------||
 |-----------------------5-|--3-----------3----||
 |-----------3--5-----5----|-----5-----5-------||
 |--3--5--6--------6-------|--------6----------||
 |-------------------------|-------------------||

|
 
 |-------------------------|-------------------||
 |----------------------13-|-11----------11----||
 |----------10-12----12----|----12----12-------||
 |-10-12-13-------13-------|-------13----------||
 |-------------------------|-------------------||
 |-------------------------|-------------------||

H=H
 
 |-----------------------|---------------------|
 |-----------------------|---------------------|
 |-----------5--7-----7--|--8-----8---7-----7--|
 |--5--7--9--------9-----|----10---------9-----|
 |-----------------------|---------------------|
 |-----------------------|---------------------|

|
 
 |-----------------------|---------------------|
 |----------13-15----15--|-16----16--15----15--|
 |-12-14-16-------16-----|----17--------16-----|
 |-----------------------|---------------------|
 |-----------------------|---------------------|
 |-----------------------|---------------------|
 |-----------------------|-----------------|
 |-----------------------|-----------------|
 |-----------5--7-----7--|--8-----8---7----|
 |--5--7--9--------9-----|----10-----------|
 |-----------------------|-----------------|
 |-----------------------|-----------------|

|
 
 |-----------------------|-----------------|
 |---------

Important: The song above is NOT stored on the Chordie server. The original song is hosted at www.azchords.com. Chordie works as a search engine and provides on-the-fly formatting. Chordie does not index songs against artists'/composers' will. To remove this song please click here.

Text color:
Chord color:
Chord grids: 
Font size:    
Page size: 

A5 B5 Bb5 C5 E5 F#5 F#5/E F5/E G#5 G5 G5/E
Rate #2 of 2 versions

Login - add to songbook

SHARE PAGE  




You need to log in to post comments