Guitar Tabs, Chords and Lyrics
Update 25:10. 13:00. Site is back up running again. Songbooks are recovered. Woring on getting search back up..


Streets of London  Ralph McTell

 
 -------------------------------------------------------------------------------

Streets of London - Ralph Mctell
 
 -------------------------------------------------------------------------------

Tuning:<EADGBe
Heres finally a tab for Ralph Mctells Streets of London!Remeber this is a easy version
sound relativitly okay!
Have you seen... The old man... In the...
[C] [G] [Am] [Em]  
 
 e|----------0----------|--------3---------|--------0--------|--------0-----------------|
 B|------1-----1---1----|----3------3---3--|----1-----1---1--|----0------0---0----------|
 G|--------0-----0------|------0------0----|------2-----2----|------0------0------------|
 D|---------------------|------------------|-----------------|--------------------------|
 A|---3-----------------|------------------|--0--------------|--2-----------------------|
 E|---------------------|--3---------------|-----------------|--------------------------|

[F] [C] [D] [G7]  
 
 e|--------1--------|---------0--------|---------2-------|--------1--------------|
 B|----1-----1---1--|-----1-----1---1--|-----3-----3---3-|----0-----0---0--------|
 G|------2-----2----|-------0-----0----|-------2-----2---|------0-----0----------|
 D|-----------------|------------------|--0--------------|-----------------------|
 A|-----------------|--3---------------|-----------------|-----------------------|
 E|--1--------------|------------------|-----------------|--3--------------------|

Repeat 1,2 for the verses. Use the same fingerpicking troughout the entire song and it
all work out fine. Same goes for the refrain! Cant remember the chords for the refrain
you can find 'em everywhere!
| / slide up
| \ slide down
| h hammer-on
| p pull-off
| ~ vibrato
| + harmonic

Important: The song above is NOT stored on the Chordie server. The original song is hosted at www.azchords.com. Chordie works as a search engine and provides on-the-fly formatting. Chordie does not index songs against artists'/composers' will. To remove this song please click here.

Text color:
Chord color:
Chord grids: 
Font size:    
Page size: 

Am C D Em F G G7
Rate #8 of 10 versions

Login - add to songbook

SHARE PAGE  




You need to log in to post comments