Guitar Tabs, Chords and Lyrics
Major upgrade!! After one year development the new version of Chordie is now online! Please give feedback.


Klavier   Rammstein

 
 E------5----------------------------
 B--------------8--------6--------5-
 G---5---5---5---5----5---5---5----
 D-7-------7--------7--------7------
 A-----------------------------------
 E----------------------------------- 

 


 


 Use this one for the second part...


 


 [E-6--]B-8--


 [G-6--]  


 [D-7--]A-8--


 [E-6--]  


 

 
 E----------------------------------------
 B-----8--------6-------------6----------
 G-----------------------9----------9-7--
 D---7---7---7---7---7----7----7--------
 A-8-------8--------8--------------------
 E---------------------------------------- 

 


 


 Then use this chord to finish every part....


 


 [E-9---]  


 [B-9---]  


 [G-12--]  


 [D-9---]A-10--


 [E-9----]  


 

 
 E----------------------------------------------
 B----------------------------------------------
 G-------12--------11---------9--------9------
 D-----9----9----9----9-----9---9----9---12--
 A-10---------10--------10--------10---------
 E----------------------------------------------


Important: The song above is NOT stored on the Chordie server. The original song is hosted at www.azchords.com. Chordie works as a search engine and provides on-the-fly formatting. Chordie does not index songs against artists'/composers' will. To remove this song please click here.

This song is displayed as text-only. Transposing and tuning is only available for chordpro-songs.
Rate #1 of 2 versions

Jango Player

Login - add to songbook

SHARE PAGE  




You need to log in to post comments