Guitar Tabs, Chords and Lyrics
Server problems seems to be fixed. Chordie has been experiencing problems with songs disappearing. These issues now seems to be fixed, but still verifying the fix. If you find anything strange, please email admin@chordie.com.


Seemann  Rammstein

[A] [G#m] [F#m] [C#m] [E] 
 
 e|--0----4----2----4-------0----|
 B|--2----4----2----5-------0----|
 G|--2----4----2----6-------1----|
 D|--2----6----4----6-------2----|
 A|--0----6----4----4-------2----|
 E|-------4----2------------0----|

The intro is played with bass but i play it on guitar on high frets, i think it sounds cool.
[Intro] 
 
 e|-----------------------------------------------------------------------------------------------------------|
 B|-----------------------------------------------------------------------------------------------------------|
 G|----18---------16---------14---------13--------11-------11-------13-------13-------14-------13-------11----|
 D|--14----14---14----14---14----14---14----14---9----9---9----9---9----9---9----9---9----9---9----9---9----9-|
 A|0----------0----------0----------0----------0--------0--------0--------0--------0--------0--------0--------|
 E|-----------------------------------------------------------------------------------------------------------|
 e|------------------------------------------------------|
 B|------------------------------------------------------|
 G|------9-----------------------------------------------|
 D|----9---9------11---------10---------11---------11----|
 A|--0---------11----11---11----11---11----11---11----11-|
 E|----------9----------9----------9----------9----------|

[Verse 1] 
// here you can play intro too or just simple chords
[A]Komm in mein [G#m]Boot
ein [F#m]Sturm kommt auf
und es wird [C#m]Nacht
[A]Wo willst du [G#m]hin
so [F#m]ganz allein
treibst du da[C#m]von
[A]Wer halt deine [G#m]Hand
[F#m]wenn es dich
nach unten [C#m]zieht
[Interlude 1] 
// strum this chords as if you were a mandolin player
[A] [G#m] [F#m] [C#m]  
[Verse 2] 
// here you can play intro too or just simple chords
[A]Wo willst du [G#m]hin
so [F#m]uferlos
die kalte [C#m]See
[A]Komm in mein [G#m]Boot
der [F#m]Herbstwind halt
die Segel [C#m]straff
[Interlude 2] 
//again, mandolin skills required ;)
[A] [G#m] [F#m] [C#m]  
[Cborus] 
//for Chorus use a strumming pattern you like
Jetzt [A]stehst du da an der [G#m]Laterne
mit [F#m]Tranen im Ge[C#m]sicht
das [A]Tageslicht fallt auf die [G#m]Seite
der [F#m]Herbstwind fegt die Strase [C#m]leer
[Interlude 3] 
[E] [E]  
[Verse 3] 
[A]Komm in mein [G#m]Boot
die [F#m]Sehnsucht wird
der Steuer[C#m]mann
[A]Komm in mein [G#m]Boot
der [F#m]beste Seemann
war doch [C#m]ich
[Cborus] 
Jetzt [A]stehst du da an der [G#m]Laterne
hast [F#m]Tranen im Ge[C#m]sicht
das [A]Feuer nimmst du von der [G#m]Kerze
die [F#m]Zeit steht still und es wird [C#m]Herbst
Sie [A]sprachen nur von deiner [G#m]Mutter
so [F#m]gnadenlos ist nur die [C#m]Nacht
am [A]Ende bleib ich doch al[G#m]leine
die [F#m]Zeit steht still
und mir ist [C#m]kalt
kalt [E]kalt kalt [E]kalt
[Outro] 
// this is the same thing as the intro but with a nice variation at the end
 
 e|-----------------------------------------------------------------------------------------------------------|
 B|-----------------------------------------------------------------------------------------------------------|
 G|-----18---------16---------14---------13--------11-------11-------13-------13-------14-------13-------11---|
 D|--14----14---14----14---14----14---14----14---9----9---9----9---9----9---9----9---9----9---9----9---9----9-|
 A|0----------0----------0----------0----------0--------0--------0--------0--------0--------0--------0--------|
 E|-----------------------------------------------------------------------------------------------------------|
 e|------------------------------------------------------|
 B|------------------------------------------------------|
 G|------9h11p9------------------------------------------|
 D|----9---------------11---------------11----------11---|
 A|--0-------------11------11------11--------11-----11---|
 E|-------------9--------------9--------------------9----|

//slow down at the end

Important: The song above is NOT stored on the Chordie server. The original song is hosted at www.azchords.com. Chordie works as a search engine and provides on-the-fly formatting. Chordie does not index songs against artists'/composers' will. To remove this song please click here.

Text color:
Chord color:
Chord grids: 
Font size:    
Page size: 

A C#m E F#m G#m
Rate #1 of 3 versions

Jango Player

Login - add to songbook

SHARE PAGE  




You need to log in to post comments