Guitar Tabs, Chords and Lyrics
Major upgrade!! After one year development the new version of Chordie is now online! Please give feedback.


California Sun   Ramones

 
 e|----------------------------------------|
 B|----------------------------------------|
 G|--------------------2--2--2--2--2--2----|
 D|--2--2--2--2--2--2--2--2--2--2--2--2----|
 A|--2--2--2--2--2--2--0--0--0--0--0--0----|
 E|--0--0--0--0--0--0----------------------|

 


 


 


 RIFF 2:


 


 

 
 e|-------------------------------------------------------------------|
 B|-------------------------------------------------------------------|
 G|--------------------6--6--6--6--6--6--------------9--9-------------|
 D|--2--2--2--2--2--2--6--6--6--6--6--6--7--7--9--9--9--9-------------|
 A|--2--2--2--2--2--2--4--4--4--4--4--4--7--7--9--9--7--7-------------|
 E|--0--0--0--0--0--0--------------------5--5--7--7-------------------|

 


 


 RIFF 3:


 


 play very fast here..... ....and here...


 

 
 e|---------------------------0----|--------------------------------0-------------|
 B|------------0--0--2--2--2-----0-|--------------0--0--2--2--2--2-----0----------|
 G|---------1----------------------|----------1-----------------------------------|
 D|--2--2--------------------------|--2--2----------------------------------------|
 A|--------------------------------|----------------------------------------------|
 E|--------------------------------|----------------------------------------------|

 


 FIRST PART SECOND PART


 


 INTERLUDE:


 


 

 
 |-----------------------------------------|
 |-----------------------------------------|
 |-----------------------------------------|
 |---2--2--2--2--2--2--2--2--7-------------|
 |---2--2--2--2--2--2--2--2--7-------------|
 |---0--0--0--0--0--0--0--0--5-------------|


Important: The song above is NOT stored on the Chordie server. The original song is hosted at www.azchords.com. Chordie works as a search engine and provides on-the-fly formatting. Chordie does not index songs against artists'/composers' will. To remove this song please click here.

This song is displayed as text-only. Transposing and tuning is only available for chordpro-songs.
Rate #1 of 4 versions

Jango Player

Login - add to songbook

SHARE PAGE  



You need to log in to post comments