Guitar Tabs, Chords and Lyrics
Server problems seems to be fixed. Chordie has been experiencing problems with songs disappearing. These issues now seems to be fixed, but still verifying the fix. If you find anything strange, please email admin@chordie.com.


Adina  Rancid

[F] [G] [C]  
 
 e|---X----X----X----|
 B|---X----X----X----|
 G|---X----X----5----|
 D|---3----5----5----|
 A|---3----5----3----|
 E|---1----3----X----|

C e|-6-6-8-| x4
B|-6-6-8-|
 
 G|-------|
 D|-------|
 A|-------|
 E|-------|
 e|-6666666666666666666-3-15-15-15-15-15-15-15-15-15-15-15-15-|
 B|-6666666666666666666-3-15-15-15-15-15-15-15-15-15-15-15-15-|
 G|-----------------------------------------------------------|
 D|-----------------------------------------------------------|
 A|-----------------------------------------------------------|
 E|-----------------------------------------------------------|

[C] [F] 
I wann[C]a go where the action is I wanna fly through the
urban blight
[F] 
I[C] wanna live like a shadow in the dark and only move
at night
[F] 
[C]A story bought a one story house that lets the winter
bleed
Twenty-one years old and [F]no money to [C]read
(Keep playing "G" all through chorus)
[G]How'd she know the roof would cave in
Over and over again
Beat up and bruised a record that's broken
Adina's crying again
[C] [F] 
Beat[C] up chevy with a trailor in tow is what they call
home now
[F] 
[C]One more hill or river to cross on the way to another
town
Crying in her beer and [F]always running a[C]way
Maybe not so much running but [F]hoping for better [C]days
(Keep playing "G" all through chorus)
[G]How'd she know the roof would cave in
Over and over again
Beat up and bruised a record that's broken
Adina's crying again
C e|-6-6-8-| x4
B|-6-6-8-|
 
 G|-------|
 D|-------|
 A|-------|
 E|-------|
 e|-6666666666666666666-15-15-15-15-15-15-15-18-18-18-18-18-18-18-18-|
 B|-6666666666666666666-15-15-15-15-15-15-15-18-18-18-18-18-18-18-18-|
 G|------------------------------------------------------------------|
 D|------------------------------------------------------------------|
 A|------------------------------------------------------------------|
 E|------------------------------------------------------------------|

[C] [F] 
I wann[C]a go where the action is I wanna fly through the
urban blight
[F] 
I[C] wanna live like a shadow in the dark and only move
at night
[F] 
[C]A story bought a one story house that lets the winter
bleed
Twenty-one years old and [F]no money to [C]read
(Keep playing "G" all through chorus)
[G]How'd she know the roof would cave in
Over and over again
Beat up and bruised a record that's broken
Adina's crying again
C e|-6-6-8-| x4
B|-6-6-8-|
 
 G|-------|
 D|-------|
 A|-------|
 E|-------|

note: b=bend
 
 e|-6666666666666666666-8-7-6-11-11-11-8b---------|
 B|-6666666666666666666-------11-11-11-8b---------|
 G|-----------------------------------------------|
 D|-----------------------------------------------|
 A|-----------------------------------------------|
 E|-----------------------------------------------|


Important: The song above is NOT stored on the Chordie server. The original song is hosted at www.azchords.com. Chordie works as a search engine and provides on-the-fly formatting. Chordie does not index songs against artists'/composers' will. To remove this song please click here.

Text color:
Chord color:
Chord grids: 
Font size:    
Page size: 

C F G
Rate #1 of 6 versions

Jango Player

Login - add to songbook

SHARE PAGE  



You need to log in to post comments