Guitar Tabs, Chords and Lyrics
Server problems seems to be fixed. Chordie has been experiencing problems with songs disappearing. These issues now seems to be fixed, but still verifying the fix. If you find anything strange, please email admin@chordie.com.


Already Dead  Rancid

INTRO
 
 e|--5-5---5555-5-5---5555-5-5---5555-5-5-------------------------------------|
 B|--5-5---5555-5-5---5555-5-5---5555-5-5--333-3-3-222-2-2--------------------|
 G|--2-2---2222-2-2---2222-5-5---2222-5-5--222-2-2-222-2-2--------------------|
 D|---------------------------------------------------------------------------|
 A|---------------------------------------------------------------------------|
 E|---------------------------------------------------------------------------|

VERSE 1
Well I d[A5]rank from Tahweh's songs and I din[D]ed on a dev[A5]il's tail
Well I'm the [A5]best at selling Christ and I'll se[D]e you all i[A5]n hell
CHORUS
'Cause I'm [C]aaaa-a[G]aalready [A5]dead
'Cause I'm [C]aaaa-a[G]aalready [A5]dead[D] [A5] [D] [A5] [D] [A5] [E5]
 
 e|-----0-0--000-0-0--000-3-3--333-3-3-----------------------------------------|
 B|-----1-1--111-1-1--111-0-0--000-0-0-----------------------------------------|
 G|-----0-0--000-0-0--000-0-0--000-0-0-----2-2--222-2-2--222-2-2--222----------|
 D|-----2-2--222-2-2--222-0-0--000-0-0-----2-2--222-2-2--222-2-2--222----------|
 A|---0-3-3--333-3-3--333-2-2--222-2-2-----0-0--000-0-0--000-0-0--000----------|
 E|-2---0-0--000-0-0--000-3-3--333-3-3-2-4-------------------------------------|
 e|-----0-0--000-0-0--000-3-3--333-3-3-----------------------2-2--222----------|
 B|-----1-1--111-1-1--111-0-0--000-0-0-----------------------3-3--333----------|
 G|-----0-0--000-0-0--000-0-0--000-0-0-2-3-2-2--222-2-2--222-2-2--222-2-2--222-|
 D|-----2-2--222-2-2--222-0-0--000-0-0-----2-2--222-2-2--222-0-0--000-2-2--222-|
 A|---0-3-3--333-3-3--333-2-2--222-2-2-----0-0--000-0-0--000----------0-0--000-|
 E|-2---0-0--000-0-0--000-3-3--333-3-3-----------------------------------------|
 e|-2-2--222----------2-2--222-------------------------------------------------|
 B|-3-3--333----------3-3--333-------------------------------------------------|
 G|-2-2--222-2-2--222-2-2--222-2-2--222-------------------------------------2--|
 D|-0-0--000-2-2--222-0-0--000-2-2--222--2-2--222-2-2--222-2-2--222-2-2-----2--|
 A|----------0-0--000------000-0-0--000--2-2--222-2-2--222-2-2--222-2-2-----0--|
 E|--------------------------------------0-0--000-0-0--000-0-0--000-0-0-2-4----|

VERSE 2
Well I've b[A5]een to hell and back one m[D]illion t[A5]imes
And the [A5]hurricane came and water a[D]ll the way to [A5]sounds
If G[A5]od and Satan both h[D]eld my h[A5]and
They s[A5]aid stay with us til [D]you underst[A5]and
CHORUS (same as the first one)
'Cause I'm [C]aaaa-a[G]aalready [A5]dead
'Cause I'm [C]aaaa-a[G]aalready [A5]dead[D] [A5] [D] [A5] [D] [A5] [E5]
BRIDGE
 
 e|-----------------------------10-10--101010-10-10--101010--------------------|
 B|-----------------------------10-10--101010-10-10--101010-8-8--888-7-7--777--|
 G|--9-9--999-9-9--999-9-9--999-7--7 --7 7 7--7- 7---7 7 7--7-7--777-7-7--777-2|
 D|--7-7--777-7-7--777-7-7--777-----------------------------------------------2|
 A|---------------------------------------------------------------------------0|
 E|----------------------------------------------------------------------------|

VERSE 3
Well my m[A5]other was a whore, she was b[D]lind, deaf and d[A5]umb
Well if you l[A5]ook at me across, well you're go[D]nna feel my [A5]gun
You see, I l[A5]ie, cheat and steal and I'll b[D]reak your f**king n[A5]eck
And you'll cu[A5]rse out my name when you t[D]ake your last b[A5]reath
CHORUS (almost the same as the first one - 3rd line also has higher pitch like 2nd,
the last one is sung like the 1st )
'Cause I'm [C]aaaa-a[G]aalready [A5]dead
'Cause I'm [C]aaaa-a[G]aalready [A5]dead
'Cause I'm [C]aaaa-a[G]aalready [A5]dead ---
'Cause I'm [C]aaaa-a[G]aal......[A5]..

Important: The song above is NOT stored on the Chordie server. The original song is hosted at www.azchords.com. Chordie works as a search engine and provides on-the-fly formatting. Chordie does not index songs against artists'/composers' will. To remove this song please click here.

Text color:
Chord color:
Chord grids: 
Font size:    
Page size: 

A5 C D E5 G
Rate #1 of 2 versions

Jango Player

Login - add to songbook

SHARE PAGE  



You need to log in to post comments