Guitar Tabs, Chords and Lyrics
Major upgrade!! After one year development the new version of Chordie is now online! Please give feedback.


Take Me There  Rascal Flatts

 
 -------------------------------------------------------------------------
 -------------------------------------------------------------------------

Tunning: Standard
Note - Don't mute the chords for the soft part of the intro and verses but
rather strum softly and concentrate more on the middle 4 strings
when softly strumming.
- Sometimes it's more appropriate to play the Bsus2 open : x24400
- These are only the chords, the rhythm is easily figured out by
listening to the song.
- the roman numerals above a chord represent when a certain lick should
be played by another guitarist.
E - 022100 1/2 half beat ~ let ring
E5 - 079900 1/4 quarter beat / slide up
E/D# - 079800 \ slide down
Asus2 - x02200 b bend up one full note
C#m - x46654 d bend back from one full note
Bsus2 - x24422 p pull-off
~~ vibrato
licks:
i) Slide optional ii) iii) iv) (Rough idea)
 
 e|-------------------- |---0~- |-------0~- |-----------------------|
 B|-------------------- |---0~- |-------0~- |-----------------------|
 G|-4-2-4/6-4-2-4/6-4~- |--2--- |-4-2-4-4~- |-13-11-9-9\6-6-644/6\4-|
 D|-------------------- |-2---- |---------- |-13-11-9-9\6-6-644/6\4-|
 A|-------------------- |------ |---------- |-11-9--7-7\4-4-422/4\2-|
 E|-------------------- |------ |---------- |-----------------------|

v) vi) Slide optional vii)
 
 e|----------------------- |------------- |---------|
 B|----------------------- |------------- |---------|
 G|-13-11-9-9\6-6-6\4-4-4- |-4-2-4/6-4-2- |-4-2-4-6-|
 D|-13-11-9-9\6-6-6\4-4-4- |------------- |---------|
 A|-11-9--7-7\4-4-4\2-2-2- |------------- |---------|
 E|----------------------- |------------- |---------|

Intro:
[1/2] E5 - [1/4]E/D# -[1/4] E5 - [i)]Asus2 x2
Verse 1
There's a [E5]place in your hea[E/D#]rt wh[E5]ere n[Asus2]obody's been.
[ii)]  
[E5] Take me t[E/D#]here.[E5] [Asus2]
Things [E5]nobody know[E/D#]s, no[E5]t e[Asus2]ven your friends.
[iii)]  
[E5] Take me [E/D#]there.[E5] [Asus2]
Tell me about your momma[E5], your dadd[E5]y, your [Asus2]home town, show me around.
[E5] I wanna see it all,[Asus2] don't leave anything out.
Chorus iv)
[E]I wanna [Asus2]know, everything a[E]bout [Asus2]you.
v)
And [E]I wanna [Asus2]go, down every [E]road you've been[Asus2].
Where your [C#m]hopes and dreams and wishes live,
where you k[Bsus2]eep the rest of your life hid.
I wanna k[Asus2]now the girl behind that pretty s[Bsus2]tare.
vi)
Take m[E5]e t[E/D#]here.[E5] [Asus2]
Verse 2
Your [E5]first real k[E/D#]iss, [E5] your [Asus2]first ture love,
vii)
[E5] you were[E/D#] scar[E]ed.[Asus2] Show me where.
You l[E5]earned about[E/D#] life[E5], spent[Asus2] your summer nights,[E5] wi[E/D#]thout[E5] a care.[Asus2]
(Take me there.)
I wanna roll down mainstree[E5]t and backroad[E5]s
l[Asus2]ike you did when you were a kid.
[Bsus2] What makes you who you are[C#m], tell me what your story is.
Play Chorus (excluding "take me there")
Play: viii)
Take me th[E5]ere.[Asus2] [Bsus2] [Asus2]
viii)
 
 e|-----------------9---------------12---------12--------------------19~-|
 B|-9---------------12b~~x4-d12-----14b~~x4d14-14b~~x2-/16-17-17-17b-----|
 G|-11b~~x4-d11p9-9-------------9-9--------------------------------------|
 D|----------------------------------------------------------------------|
 A|----------------------------------------------------------------------|
 E|----------------------------------------------------------------------|

E Bsus2-Asus2 iv)
I wanna know, everything about you.
v)
And [E]I wanna [Asus2]go, down every r[E]oad you've bee[Asus2]n.
Where your [C#m]hopes and dreams and wishes live,
where you k[Bsus2]eep the rest of your life hid.
I wanna k[Asus2]now the girl behind that pretty s[Bsus2]tare.[Bsus2]
E Asus2 x6
Take me there, etc...

Important: The song above is NOT stored on the Chordie server. The original song is hosted at www.azchords.com. Chordie works as a search engine and provides on-the-fly formatting. Chordie does not index songs against artists'/composers' will. To remove this song please click here.

Text color:
Chord color:
Chord grids: 
Font size:    
Page size: 

Asus2 Bsus2 C#m E E5
Rate #1 of 4 versions

Jango Player

Login - add to songbook

SHARE PAGE  



You need to log in to post comments